>
 >
Latin Percussion

Latin Percussion Guitar Tabs

Tyler Ward - Latin Percussion chords, tabs, tablatures, lyrics

Guitar lessons | Add/correct | Request | Top 50 tabs Artists:  A B C D E F G H I J K L M N O P Q R S T U V W X Y Z 0-9

Latin Percussion Guitar Tabs – Tyler Ward

CD, Sheet music, Poster

Do you like Latin Percussion? Share with your friends now
Tabs
Song  :   Latin Percussion
Tuning:   Standard

Intro:
e|--5---5---5-------------8-----5-------------8-----5-------------8-----5---|
B|--6---6---6--5h6h5------------6--5h6h5------------6--5h6h5------------6---|
G|--5---5---5---------7-5-------5---------7-5-------5---------7-5-------5---|
D|--7---7---7----------------3/-7----------------3/-7----------------3/-7---|
A|--5---5---5----------------3/-5----------------3/-5----------------3/-5---|
E|--x---x---x----------------3/-x----------------3/-x----------------3/-x---|

e|--5---5--|
B|--6---6--|
G|--5---5--|
D|--7---7--|
A|--5---5--|
E|--x---x--|

Verse:
(Don't play when the verse starts but listen to the song when the guitar starts)
e|--5---5---5----5--6-5-3----5-5---5-5--|
B|--6---6---6----6--6-5-3----5-5---5-5--|
G|--5---5---5----5--7-6-4----6-6---6-6--|
D|--7---7---7----7--6-5-3----5-5---5-5--|
A|--5---5---5----5--8-7-5----7-7---7-7--|
E|--x---x---x----x--6-5-3----5-5---5-5--|

Chorus:
(Listen to the song for good timing)
e|--5---x----x----5--|
B|--6---x----x----6--|
G|--5---10---5----5--|    2x
D|--7---10---5----7--|
A|--5---8----3----5--|
E|--x---x----x----x--|

Intro:
e|--5-------------8-----5-------------8-----5----5---|
B|--6--5h6h5------------6--5h6h5------------6----6---|
G|--5---------7-5-------5---------7-5-------5----5---|
D|--7----------------3/-7----------------3/-7----7---|
A|--5----------------3/-5----------------3/-5----5---|
E|--x----------------3/-x----------------3/-x----x---|

Verse:
e|--5---5---5----5--6-5-3----5-5---5-5--|
B|--6---6---6----6--6-5-3----5-5---5-5--|
G|--5---5---5----5--7-6-4----6-6---6-6--|
D|--7---7---7----7--6-5-3----5-5---5-5--|
A|--5---5---5----5--8-7-5----7-7---7-7--|
E|--x---x---x----x--6-5-3----5-5---5-5--|

Chorus:
e|--5---x----x----5--|
B|--6---x----x----6--|
G|--5---10---5----5--|    2x
D|--7---10---5----7--|
A|--5---8----3----5--|
E|--x---x----x----x--|

Bridge:
e|---------------------------------        --3---5--|
B|---------------------------------        --3---5--|
G|--7--10--7--5--7--5--3--5--3--2--    2x  --5---7--|
D|--7--10--7--5--7--5--3--5--3--2--        --5---7--|
A|--5--8---5--3--5--3--1--3--1--0--        --3---5--|
E|---------------------------------        --x---x--|

Chorus:
You don't play the notes with (-)
e|--5---x----x----5----(5)---(x)----(x)---(5)--|
B|--6---x----x----6----(6)---(x)----(x)---(6)--|
G|--5---10---5----5----(5)---(10)---(5)---(5)--|
D|--7---10---5----7----(7)---(10)---(5)---(7)--|
A|--5---8----3----5----(5)---(8)----(3)---(5)--|
E|--x---x----x----x----(x)---(x)----(x)---(x)--|

e|--5---x----x----5--|
B|--6---x----x----6--|
G|--5---10---5----5--|
D|--7---10---5----7--|
A|--5---8----3----5--|
E|--x---x----x----x--|





Comments


Popular Tyler Ward tabs & chords
Et 1 Chords
Home 2 Chords
Tyler Swift Chords
Latin Percussion Intro Tabs
The Rescue 2 Tabs
Firework Ukulele
Home Ukulele
Sunset Dreaming Ukulele
The Way I Loved You Ukulele
Vt Tribute Ukulele


Song lyrics



↑ Back to top | Tablatures and chords are parodies/interpretations of the original songs. You may use it for private study, scholarship, research or language learning purposes only
© 2014 AZChords.com Contact us | Privacy policy | DMCA | Add/correct tabs | Request tabs | Top 50 tabs