» » »

Tyler Ward, Black And Yellow Tabs (ver.1)

Artists:  A B C D E F G H I J K L M N O P Q R S T U V W X Y Z # 

Black And Yellow Tabs (ver.1)

Tyler Ward Tabs
 Rating:
4.3/5 (6 votes)
Black And Yellow lessons Tabs too difficult? Try these video lessons and learn fast
1
                -----------------------------------------------------------------------------
          Black and Yellow (Rock Version) - Tyler Ward (ft Eppic)
-----------------------------------------------------------------------------

[This is my first Tab ever, Please E-mail me for any mess ups in the Tab]
(I gave you guys the main parts you need to know, Not the songs order)

Tuning: Drop D


[First Riff]
e|--------------------------------------------------------------------------|
B|--------------------------------------------------------------------------|
G|--------------------------------------------------------------------------|
D|--12-------10-------5-------8---------12------10------5------8------------|
A|--12-------10-------5-------8---------12------10------5------8------------|
D|--12-------10-------5-------8---------12------10------5------8------------|

[Main Riff/ Chorus Riff] X4                          B  &  Y owe B  &  Y  owe
e|-13-10-12-10-13-10-12-10--13----12----13----12----------------------------|
B|-----------------------------13----13----13----13-------------------------|
G|---------------------------------------------------12-14-15-14-12-14-15-14|
D|--------------------------------------------------------------------------|
A|--------------------------------------------------------------------------|
D|--------------------------------------------------------------------------|

[Bridge]
e|--------------------------------------------------------------------------|
B|--------------------------------------------------------------------------|
G|--------------------------------------------------------------------------|
D|--------------------------------------------------------------------------|
A|--------------------------------------------------------------------------|
D|-12-12-12-12-12-12-12-12-10-10-10-10-10-10-10-10-5-5-5-5-5-5-5-5-8-8-8-8-8|

e|--------------------------------------------------------------------------|
B|--------------------------------------------------------------------------|
G|--------------------------------------------------------------------------|
D|--------------------------------------------------------------------------|
A|--------------------------------------------------------------------------|
D|-8-8-8-12-12-12-12-12-12-12-12-12-10-10-10-10-10-10-10-10-5-5-5-5-5-5-5-5-|

e|--------------------------------------------------------------------------|
B|--------------------------------------------------------------------------|
G|--------------------------------------------------------------------------|
D|--------------------------------------------------------------------------|
A|--------------------------------------------------------------------------|
D|-8-8-8-8-8-8-8-8----------------------------------------------------------|

[Riff Bridge at 2:20]
e|--------------------------------------------------------------------------|
B|--------------------------------------------------------------------------|
G|--------------------------------------------------------------------------|
D|--------------------------------------------------------------------------|
A|-12--12-12---10---5-8-3---3-3--5---5-5--8--8-8-8-8-8-8-8-8-10-10-10-10-10-|
D|-12--12-12---10---5-8-3---3-3--5---5-5--8--8-8-8-8-8-8-8-8-10-10-10-10-10-|

e|--------------------------------------------------------------------------|
B|--------------------------------------------------------------------------|
G|--------------------------------------------------------------------------|
D|--------------------------------------------------------------------------|
A|-10-10-10-----------------------------------------------------------------|
D|-10-10-10-----------------------------------------------------------------|
            
Submit corrections

comments powered by Disqus
↑ Back to top | Tyler Ward Tabs for Black And Yellow. Lyrics for acoustic guitar and electric guitar. 1 Tablatures and chords are parodies/interpretations of the original songs. You may use it for private study, scholarship, research or language learning purposes only