>
 >
Sunset Boulevard

Sunset Boulevard Guitar Tabs

Tyler Hilton - Sunset Boulevard chords, tabs, tablatures, lyrics

Guitar lessons | Add/correct | Request | Top 50 tabs Artists:  A B C D E F G H I J K L M N O P Q R S T U V W X Y Z 0-9

Sunset Boulevard Guitar Tabs – Tyler Hilton

CD, Sheet music, Poster

Do you like Sunset Boulevard? Share with your friends now
Tabs
-------------------------------------------------------------------------------
                             Sunset Boulevard by Tyler Hilton
-------------------------------------------------------------------------------

Tuning: D  G  D  G  B  D
Capo 2nd fret

intro:
D|--0----------0-----------0----------0---|
B|--0---------h1-----------0---------h1---|
G|--0----------0-----------0----------0---|
D|--0---------h2-----------0---------h2---| 
G|--0----------0-----------0----------0---|
D|--0----------0-----------0----------0---|


vers:
I come from the desert where....

D|--0----------0-----------0----------0---|
B|--0---------h1-----------0---------h1---|
G|--0----------0-----------0----------0---|
D|--0---------h2-----------0---------h2---| x2
G|--0----------0-----------0----------0---|
D|--0----------0-----------0----------0---|

I met a girl who's a lot like me....

D|--0----------0-----------0----------0---|
B|-10----------9-----------3----------0---|
G|--0----------0-----------0----------0---|
D|-11----------9-----------5----------0---| x3
G|-11----------9-----------5----------0---|
D|--0----------0-----------0----------0---|

As long as I can sing about her....

D|--0----------0-----------0--------------|
B|--3---------10----------\9--------------|
G|--0----------0-----------0--------------| x1
D|--5----------9-----------9--------------|
G|--5----------9-----------9--------------|
D|--0----------0-----------0--------------|

Chorus:
Baby walk with me on Sunset Boulevard

D|--0----------0-----------0-----------0---|
B|--3----------3----------10-----------9---|
G|--0----------0-----------0-----------0---|
D|--0----------0-----------0-----------9---| x1
G|--4----------5----------11-----------9---|
D|--0----------0-----------0-----------0---|


D|--0----------0-----------0-----------0---|
B|--3----------3-----------10----------9---|
G|--0----------0-----------0-----------0---|
D|--0----------0-----------9-----------9---|
G|--4----------5-----------9-----------9---|
D|--0----------0-----------0-----------0---|

intro:
D|--0----------0-----------0----------0---|
B|--0---------h1-----------0---------h1---|
G|--0----------0-----------0----------0---|
D|--0---------h2-----------0---------h2---| 
G|--0----------0-----------0----------0---|
D|--0----------0-----------0----------0---|


vers:
Yeah I'm a hopeful songwriter...

D|--0----------0-----------0----------0---|
B|--0---------h1-----------0---------h1---|
G|--0----------0-----------0----------0---|
D|--0---------h2-----------0---------h2---| x2
G|--0----------0-----------0----------0---|
D|--0----------0-----------0----------0---|

Ive got my name in vending machines...

D|--0----------0-----------0----------0---|
B|-10----------9-----------3----------0---|
G|--0----------0-----------0----------0---|
D|-11----------9-----------5----------0---| x3
G|-11----------9-----------5----------0---|
D|--0----------0-----------0----------0---|

As long as I can sing about you....

D|--0----------0-----------0--------------|
B|--3---------10----------\9--------------|
G|--0----------0-----------0--------------| x1
D|--5----------9-----------9--------------|
G|--5----------9-----------9--------------|
D|--0----------0-----------0--------------|

Chorus:
Baby walk with me on Sunset Boulevard

D|--0----------0-----------0-----------0---|
B|--3----------3----------10-----------9---|
G|--0----------0-----------0-----------0---|
D|--0----------0-----------0-----------9---| x1
G|--4----------5----------11-----------9---|
D|--0----------0-----------0-----------0---|


D|--0----------0-----------0-----------0---|
B|--3----------3-----------10----------9---|
G|--0----------0-----------0-----------0---| x1
D|--0----------0-----------9-----------0---|
G|--4----------5-----------9-----------0---|
D|--0----------0-----------0-----------0---|

Fall in Love with me on Sunset Boulevard...

D|--0----------0-----------0-----------0---|
B|--3----------3----------10-----------9---|
G|--0----------0-----------0-----------0---|
D|--0----------0-----------0-----------9---| x1
G|--4----------5----------11-----------9---|
D|--0----------0-----------0-----------0---|

Cause we were lost here from the start

D|--0----------0-----------0-----------0---|
B|--3----------3-----------10----------9---|
G|--0----------0-----------0-----------0---| x1
D|--0----------0-----------9-----------9---|
G|--4----------5-----------9-----------9---|
D|--0----------0-----------0-----------0---|

Bridge:

Don't let it get you down..

D|--0----------0-----------0-----------0---|
B|-10----------9-----------3-----------3---|
G|--0----------0-----------0-----------0---|
D|-11----------9-----------4-----------5---| x1
G|-11----------9-----------4-----------5---|
D|--0----------0-----------0-----------0---|

There's hope, its all around

D|--0----------0-----------0-----------0---|
B|-10----------9-----------3-----------3---|
G|--0----------0-----------0-----------0---|
D|-11----------9-----------4-----------5---| x1
G|-11----------9-----------4-----------5---|
D|--0----------0-----------0-----------0---|

Hold on you're almost there..They come from everywhere

D|--0----------0-----------0-----------0----------0---|
B|-10----------9-----------3----------10---------10---|
G|--0----------0-----------0-----------0----------0---| x1
D|-11----------9-----------4----------12---------11---|
G|-11----------9-----------4----------12---------11---|
D|--0----------0-----------0-----------0----------0---|

just to make it here...

D|--0----------0-----------0-----------0---|
B|--1----------3-----------3-----------3---|
G|--0----------0-----------0-----------0---|
D|--2----------4-----------5-----------5---| x1
G|--2----------4-----------5-----------5---|
D|--0----------0-----------0-----------0---|

Baby walk with me on Sunset Boulevard

E|--0----------0-----------0-----------0---|
B|--0----------1----------/3----------\1---|
G|--0----------0-----------0-----------0---|
D|--0----------2-----------0----------\2---| x1
G|--0----------0----------/4-----------0---|
D|--0----------0-----------0-----------0---|


D|--0----------0-----------0-----------0---|
B|--3----------3-----------10----------9---|
G|--0----------0-----------0-----------0---| x1
D|--0----------0-----------9-----------0---|
G|--4----------5-----------9-----------0---|
D|--0----------0-----------0-----------0---|

Fall in Love with me on Sunset Boulevard...

D|--0----------0-----------0-----------0---|
B|--3----------3----------10-----------9---|
G|--0----------0-----------0-----------0---|
D|--0----------0-----------0-----------9---| x1
G|--4----------5----------11-----------9---|
D|--0----------0-----------0-----------0---|

Cause we were lost here from the start

D|--0----------0-----------0-----------0---|
B|--3----------3-----------10----------9---|
G|--0----------0-----------0-----------0---| x1
D|--0----------0-----------9-----------9---|
G|--4----------5-----------9-----------9---|
D|--0----------0-----------0-----------0---|

Ending:

D|--0----------0-----------0-----------0---|
B|--0---------h1----------10-----------9---|
G|--0----------0-----------0-----------0---|
D|--0---------h2-----------0-----------9---| x1
G|--0----------0----------11-----------9---|
D|--0----------0-----------0-----------0---|

D|--0----------0-----------0-----------0---|
B|--3----------3----------10-----------9---|
G|--0----------0-----------0-----------0---|
D|--0----------0-----------0-----------9---| x1
G|--4----------5----------11-----------9---|
D|--0----------0-----------0-----------0---|

D|--0---|
B|--0---|
G|--0---|
D|--0---| x1
G|--0---|
D|--0---|






| /  slide up
| \  slide down
| h  hammer-on
| p  pull-off
| ~  vibrato
| +  harmonic
| x  Mute note
===============================================================================





Comments


Popular Tyler Hilton tabs & chords
Glad Chords
Kiss On Me Chords
So Young Chords
Someone Like You Chords
Sunset Blvd Chords
Aint A Thing Ukulele
I Believe In You Ukulele
I Belong Ukulele
Rollin Home Ukulele
Tore The Line Ukulele


Song lyrics



↑ Back to top | Tablatures and chords are parodies/interpretations of the original songs. You may use it for private study, scholarship, research or language learning purposes only
© 2014 AZChords.com Contact us | Privacy policy | DMCA | Add/correct tabs | Request tabs | Top 50 tabs