» » »

Two Door Cinema Club, Sleep Alone Tabs (ver.1)

Artists:  A B C D E F G H I J K L M N O P Q R S T U V W X Y Z # 

Sleep Alone Tabs (ver.1)

Two Door Cinema Club Tabs
Rating:
0/5 (0 votes)
Sleep Alone lessons Tabs too difficult? Try these video lessons and learn fast
                "SLEEP ALONE" - TWO DOOR CINEMA CLUB

INTRO (:00 -:28):

e|-12-----------------|
B|----12--------------|
G|-------12-----------|
D|--------------------|   \
A|--------------------|     \
E|--------------------|       \
                                       (x4)
e|-12--------------------------|       /
B|----13-----------------------|      /
G|-------14--------------------|    /
D|-----------------------------|
A|-----------------------------|
E|-----------------------------|

PRE-CHORUS (:29 - :41):

e|-3-3-5-3-3-3-5-3-3-3-5-----------------|
B|------------------------3-3-5-3-3-3-5-3|
G|---------------------------------------|
D|---------------------------------------|
A|---------------------------------------|
E|---------------------------------------|

(Not in order properly, but you get the idea, if not, listen closely..)

CHORUS (:42 - 1:07):

e|-3-3-5-3-3-3-5-3-3-5-3-3-3-| 5/10-10-12-10-10-10-12-10-10-10-8----8---------|
B|--------------| --------------------------------------------------10--------|
G|--------------| ------------------------------------------------------------|
D|--------------| ------------------------------------------------------------|
A|--------------| ------------------------------------------------------------|
E|--------------| ------------------------------------------------------------|

e|-3-3-5-3-3-3-5-3-3-3-5-----------------|
B|---------------------------------------|
G|---------------------------------------|
D|---------------------------------------|
A|---------------------------------------|
E|---------------------------------------|

(BACK TO VERSES 1:08 - 1:32):

e|-12-----------------|
B|----12--------------|
G|-------12-----------|
D|--------------------|   \
A|--------------------|     \
E|--------------------|       \
                                                  (x4)
e|-12--------------------------|       /
B|----13-----------------------|      /
G|-------14--------------------|    /
D|-----------------------------|
A|-----------------------------|
E|-----------------------------|

(BACK TO PRE-CHORUS 1:33 - 1:46):

e|-3-3-5-3-3-3-5-3-3-3-5-----------------|
B|------------------------3-3-5-3-3-3-5-3|
G|---------------------------------------|
D|---------------------------------------|
A|---------------------------------------|
E|---------------------------------------|

(CHORUS 1:47 - 2:12):
e|-3-3-5-3-3-3-5-3-3-5-3-3-3-| 5/10-10-12-10-10-10-12-10-10-10-8----8---------|
B|--------------| --------------------------------------------------10--------|
G|--------------| ------------------------------------------------------------|
D|--------------| ------------------------------------------------------------|
A|--------------| ------------------------------------------------------------|
E|--------------| ------------------------------------------------------------|

e|-3-3-5-3-3-3-5-3-3-3-5-----------------|
B|---------------------------------------|
G|---------------------------------------|
D|---------------------------------------|
A|---------------------------------------|
E|---------------------------------------|

(BRIDGE 2:13 - 2:38)

(CHORUS 2:39 - 3:06)

(ORCHESTRAL PART 3:07 - 3:41)

e|-3-3-3-3-3-3-3-3-3-3-3-3-3-3-3-3-3-5-5-5-0-0-0-0-0-0-0-0-3-3-3-3-5-5------|
B|--------------------------------------------------------------------------|
G|--------------------------------------------------------------------------|
D|--------------------------------------------------------------------------|
A|--------------------------------------------------------------------------|
E|--------------------------------------------------------------------------|
(x2)
e|-0-0-0-0-0-0-0-------------------------------------------|
B|----------------3-1-1-1-1-1-1-1-1-1-1-1-1-1-1-1-1-1~-----|
G|---------------------------------------------------------|
D|---------------------------------------------------------|
A|---------------------------------------------------------|
E|---------------------------------------------------------|

END!

Thanks! Sorry it's so scattered, did this all by ear, very confusing at parts..
            

comments powered by Disqus
↑ Back to top | Two Door Cinema Club Tabs for Sleep Alone. Lyrics for acoustic guitar and electric guitar. Tablatures and chords are parodies/interpretations of the original songs. You may use it for private study, scholarship, research or language learning purposes only