» » »

Wer Bisto Chords (ver.1)

Artists:  A B C D E F G H I J K L M N O P Q R S T U V W X Y Z # 

Wer Bisto Chords (ver.1)

Twarres
Rating:
4/5 (2 votes)

Tabs too difficult? Try these video lessons and learn fast.
                
Intro
E --------0---0-----------0----0---------------------------------------------||
B ----------3--1-------------3---1---------0-- --------0---------------------||
G --------------0-------2----------2---------0-----------0-------------------||
D ------2-------------2------------------2-----------0-------0---------------||2x
A ----3-------------0-------------------2-----------2----------2-------------||
E -------------------------------------0-----------3-------------------------||




        G/B: 320033

 	Dm	G/B
 	Doe't ik dy seach 	lang ferlyn
 	Dm	G/B
 	Wat docht it dochs sear as 	ik d'r wer oan tink (2x)

 	C
 	Ik sjoch dy,
 	Am
 	Ik hear dy,
 	Dm	G/B	C
 	Ik fiel dy, 	eltse kear o	pnij (2x)

 	G/B	Dm	G/B	Dm	G/B	Dm
 	Oeh... 	Oeh	....Oe	h .	.Oeh 	 

      C
 Hjir bin 	ik,
        Am
 Wer bist	o
      C    	G
 It is al 	lan 	lyn
         C
Hjir bin i	k,
 	   Am
Wer bist	o
 	       C	G
It is te l	ang l	yn

 	C	Am	G
 	Do bist net 	oars dan 	leaf
 	C	Am	G
        Want 	do dochst gew	oan neat fer	keard
 	C	Am	G
 	Ik hald fan 	dy, sa asto bi	st
 	C	Am	G
 	Datst dat dan 	wol efkes w	itst

        SOLO or you can play: (C Am Em G)

E --------0---0-----------0----0---------------------------------------------||
B ----------3--1-------------3---1---------0-- --------0---------------------||
G --------------0-------2----------2---------0-----------0-------------------||
D ------2-------------2------------------2-----------0-------0---------------||2x
A ----3-------------0-------------------2-----------2----------2-------------||
E -------------------------------------0-----------3-------------------------||

Hjir bin ik,
Wer bisto
It is al lang lyn
Hjir bin ik
Wer bisto
It is te lang lyn

Do bist net oars dan leaf
Want do dochst gewoan neat ferkeard
Ik hald fan dy, sa asto bist
Datst dat dan wol efkes witst

Ik sjoch dy,
Ik hear dy,
Ik fiel dy, eltse kear opnij (2x)
            
Tabs too difficult? Try these video lessons and learn fast.




comments powered by Disqus
↑ Back to top | Tablatures and chords are parodies/interpretations of the original songs. You may use it for private study, scholarship, research or language learning purposes only