» » »

Tv On The Radio, Will Do Bass tabs (ver.2)

Artists:  A B C D E F G H I J K L M N O P Q R S T U V W X Y Z # 

Will Do Bass tabs (ver.2)

Tv On The Radio Tabs
 Rating:
4.2/5 (5 votes)
Will Do lessons Tabs too difficult? Try these video lessons and learn fast
1
                Bass starts at 0:24- Verse:
G------3-5--------3-------|
D----------3-----------3--|
A--5----------5-----3-----|
E-------------------------| (2x)

Chorus:
G------------------------------|
D------------------------------|
A--1-------3--5-3---1----------|
E------1----------------1---5--|

"Post Chorus": (Sings "you... ooooh-oooh-oh-oh-oh")
G-------------|
D-------------|
A--5-------5--|
E------3------|

Verse 2

Chorus

"Post Chorus" (2x)

Bridge- No bass until 2:35 which is just 5 fret (which is a D) on the A chord

Alt Chorus- same as Chorus


The way they actually play the verse is all on the A with a giant slide in there 
somewhere. So with that the verse would be:

A--5///13/15-8--5---13\\\3/8--

/=slide up  \=slide down
            
Submit corrections

comments powered by Disqus
↑ Back to top | Tv On The Radio Bass for Will Do. Lyrics for acoustic guitar and electric guitar. 1 Tablatures and chords are parodies/interpretations of the original songs. You may use it for private study, scholarship, research or language learning purposes only