» » »

Tv On The Radio, Will Do Bass tabs (ver.1)

Artists:  A B C D E F G H I J K L M N O P Q R S T U V W X Y Z # 

Will Do Bass tabs (ver.1)

Tv On The Radio Tabs
Rating:
1/5 (1 vote)
Will Do lessons Tabs too difficult? Try these video lessons and learn fast
                Tv on the Radio- Will Do.
No bass til 0:19
Intro

G|---------------------------------------------|
D|---------------------------------------------|
A|--5---------5--------------------------------|
E|---------------------------------------------|

Versex2

G|-----------------------------------|
D|-----------------------------------|
A|--5-------3-------5------3---8-----|
E|-------6-----1--------6------------|


Chorus
G|------------------------------------------------|
D|------------------------------------------------|
A|-1--------5-3-1-------5-3-1------5-3-1-----5-3--|
E|-----1--8--------1--5-------1--8-------1-5------|

Preverse
G|---------------------------------------------------|
D|-----5-5-------------------------------------------|
A|5--5-----5---5-3-----------------------------------|
E|-----------------5-3-------------------------------|

Versex2

G|-----------------------------------|
D|-----------------------------------|
A|--5-------3-------5------3---8-----|
E|-------6-----1--------6------------|


Chorus
G|------------------------------------------------|
D|------------------------------------------------|
A|-1--------5-3-1-------5-3-1------5-3-1-----5-3--|
E|-----1--8--------1--5-------1--8-------1-5------|

Prebridge
G|------------------------------------------|
D|--5----------------5----------------------|
A|5---5--5-3-------5---5--------------------|
E|-----------5-3----------------------------|

Bridge- Start at 2:33
G|-------------------------------------------------|
D|-------------------------------------------------|
A|-5-5-5-5-5-5-5-5-5-5-5-5-5-5-5-5-5-5-5-5-5-5-5-5-|
E|-------------------------------------------------|


Chorusx2
G|------------------------------------------------|
D|------------------------------------------------|
A|-1--------5-3-1-------5-3-1------5-3-1-----5-3--|
E|-----1--8--------1--5-------1--8-------1-5------|
            

comments powered by Disqus
↑ Back to top | Tv On The Radio Bass for Will Do. Lyrics for acoustic guitar and electric guitar. Tablatures and chords are parodies/interpretations of the original songs. You may use it for private study, scholarship, research or language learning purposes only