>
 >
Wear You Out

Wear You Out Guitar Tabs

Tv On The Radio - Wear You Out chords, tabs, tablatures, lyrics

Guitar lessons | Add/correct | Request | Top 50 tabs Artists:  A B C D E F G H I J K L M N O P Q R S T U V W X Y Z 0-9

Wear You Out Guitar Tabs – Tv On The Radio

CD, Sheet music, Poster

Do you like Wear You Out? Share with your friends now
Tabs
-----------------------------------------------------------------------------
-----------------------------------------------------------------------------

Tuning: Standard

This song has a few guests playing saxophone and flute so it might be hard
to reproduce.  Basically a loose jam, like most of their songs its more fun
to play to the cd than by yourself.

Questions/comments/corrections, feel free. Enjoy.

Intro - Guitar
e|--------------------------------------------------------------------------|
B|--------------------------------------------------------------------------|
G|--------------------------------------------------------------------------|
D|--------------------------------(x2)--------------------------------------|
A|---5----5-3----3-2----2h3-3-2---------------------------------------------|
E|--------------------------------------------------------------------------|

Verse
e|--------------------------------------------------------------------------|
B|--------------------------------------------------------------------------|
G|--------------------------------------------------------------------------|
D|--------------------------------(x16)-------------------------------------|
A|---5-----3-------2----2h3-3-2---------------------------------------------|
E|--------------------------------------------------------------------------|


Chorus - Sax/Guitar - **NOTE: r = let ring out**
e|-----------10-----------------------|-----------10-----------------12r----|
B|--------10----13r----12-10r---------|--------10----13r-----12h13----------|
G|---9/10-----------------------------|---9/10------------------------------|
D|------------------------------------|-------------------------------------|
A|------------------------------------|-------------------------------------|
E|------------------------------------|-------------------------------------|


e|----------10------------------------|---------10--------------------------|
B|--------10---13r------12h13p12r-----|-------10---13r----10h12p10----------|
G|---9/10-----------------------------|---9/10-----------------------10r----|
D|------------------------------------|-------------------------------------|
A|------------------------------------|-------------------------------------|
E|------------------------------------|-------------------------------------|


Verse - Guitar
e|--------------------------------------------------------------------------|
B|--------------------------------------------------------------------------|
G|--------------------------------------------------------------------------|
D|--------------------------------(x16)-------------------------------------|
A|---5-----3-------2----2h3-3-2---------------------------------------------|
E|--------------------------------------------------------------------------|


Outro - Guitar
e|--------------------------------------------------------------------------|
B|--------------------------------------------------------------------------|
G|--------------------------------------------------------------------------|
D|-------------------------------------------5--------(repeat till end)-----|
A|---5-5-8--5-5------8-8-5--8-5------5-5--8----5----------------------------|
E|--------------------------------------------------------------------------|

******EXTRA******
At 2:28, and sporadicaly throughout the song, a flute player does short quick trills, 
you can do on guitar if you have enough frets, or you
can just play it a few semitones lower a get the same effet.

e|---22h24tr---|-------20h22tr----------------------------------------------|
B|-------------|-----------------18h20tr------------------------------------|
G|-------------|---or----------------------17h19tr--------------------------|
D|-------------|------------------------------------------------------------|
A|-------------|------------------------------------------------------------|
E|-------------|------------------------------------------------------------|

| /  slide up
| \  slide down
| h  hammer-on
| p  pull-off
| ~  vibrato
| +  harmonic
| x  Mute note
=============================================================================





Comments


Popular Tv On The Radio tabs & chords
Dlz 1 Chords
Halfway Home 1 Chords
Love Dog 1 Chords
Second Song Chords
Crying Tabs
Dreams Tabs
Province Tabs
Dlz Ukulele
Halfway Home Ukulele
Shout Me Out Ukulele


Song lyrics



↑ Back to top | Tablatures and chords are parodies/interpretations of the original songs. You may use it for private study, scholarship, research or language learning purposes only
© 2014 AZChords.com Contact us | Privacy policy | DMCA | Add/correct tabs | Request tabs | Top 50 tabs