» » »

Satellite Tabs (ver.1)

Artists:  A B C D E F G H I J K L M N O P Q R S T U V W X Y Z # 

Satellite Tabs (ver.1)

Tv On The Radio
Rating:
4/5 (2 votes)

Tabs too difficult? Try these video lessons and learn fast.
                -------------------------------------------------------------------------------
-------------------------------------------------------------------------------

Tuning: Standard - EADGBe

This obviously wasn't tabbed-out with correct timing in mind.
I simply wanted to give a simple example of the chord/song structure.
The lyrics probably aren't 100% correct either.
Hopefully you'll be able to put it all together.
Enjoy!

Guitar 1: Synth bassline (Translated to guitar). Played throughout the song.
e|---------------------------------------------------------------------------|
B|---------------------------------------------------------------------------|
G|---------------------------------------------------------------------------|
D|-4---2--4------------------------------------------------------------------|
A|-4---0--2------------------------------------------------------------------|
E|-2-------------------------------------------------------------------------|
   F#  A  B

Guitar 2:
"sattellite just went down..."
e|---------------------------------------------------------------------------|
B|---------------------------------------------------------------------------|
G|11-11-11-11-11-11-11-11-11-11-11-11-11-11-11-11-11-11-11-11-11-11-11-11-11-|
D|---------------------------------------------------------------------------|
A|9-9-9-9-9-9-9-9-9-9-9-9-9-9-9-9-9-9-9-9-9-9-9-9-9-9-9-9-9-9-9-9-9-9-9-9-9--|
E|---------------------------------------------------------------------------|

Guitar 2b:
"so now I'm waiting for a signal or a sound..."
e|---------------------------------------------------------------------------|
B|---------------------------------------------------------------------------|
G|11-11-11-11-11-11-11-14-14-14-14-14-14-14-14-14-14-8-8-8-8-8-8-8-8-8-8-8-8-|
D|---------------------------------------------------------------------------|
A|9-9-9-9-9-9-9-9-9-9--12-12-12-12-12-12-12-12-12-12-6-6-6-6-6-6-6-6-6-6-6-6-|
E|---------------------------------------------------------------------------|

Your voice 
Was a satellite 
Spinning next to me
Now I can't hear
Over the radio, someone said 
A satellite just went down 
Into the sea
So I go
I fathom leagues
I am the undertow
I wait peacefully

Now I'm waiting for a signal or a sound
Where can you be found now, my love?
Where can you be?
Waiting for a signal or a sound

Your heart 
Was that burning eye
Went weaping gamma rays
Down from black sky
Soul stich
I'll be your satelite

Video covering
Infra-red light
(So now) I'm waiting for a signal or a sound
Where can you be found now
Where can you be found now, my love
Where can you be
Waiting for a signal or a sound 

| /  slide up
| \  slide down
| h  hammer-on
| p  pull-off
| ~  vibrato
| +  harmonic
| x  Mute note
===============================================================================
            
Tabs too difficult? Try these video lessons and learn fast.


comments powered by Disqus
↑ Back to top | Tablatures and chords are parodies/interpretations of the original songs. You may use it for private study, scholarship, research or language learning purposes only