» » »

Dreams Bass tabs (ver.1)

Artists:  A B C D E F G H I J K L M N O P Q R S T U V W X Y Z # 

Dreams Bass tabs (ver.1)

Tv On The Radio
Rating:
0/5 (0 votes)

Hard to play? Try these video lessons and learn fast.
                  Dreams
  by
  Tv on the Radio

Verse:

G|---------------------------|
D|---------------------------|
A|2~~~~~-0-------------------|
E|--------3~~~~~~-3-4~~~~~~~-|

Chorus:

G|-----------------------------------|------------------------------------|
D|-----------------------------------|------------------------------------|
A|-----------------------------------|------------------------------------|
E|7-7-7-7--7-7-7-7--7-7-7-7--7-7-7-7-|-7-7-7-7--7-7-7-7--7-7-7-7--7-7-7-7-|

G|-----------------------------------|------------------------------------|
D|-----------------------------------|------------------------------------|
A|-----------------------------------|------------------------------------|
E|3-3-3-3--3-3-3-3--3-3-3-3--3-3-3-3-|-3-3-3-3--3-3-3-3--3-3-3-3--3-3-3-3-|

Verse 2 fill:

G|--------------------------|
D|--------------------------|
A|2~~~~~~-0-----------7-5~~-|
E|---------3~~~~~~3-4~------|
            
Hard to play? Try these video lessons and learn fast. | Correct




comments powered by Disqus
↑ Back to top | Tablatures and chords are parodies/interpretations of the original songs. You may use it for private study, scholarship, research or language learning purposes only