» » »

Tv On The Radio, Dirtywhirl Tabs (ver.1)

Artists:  A B C D E F G H I J K L M N O P Q R S T U V W X Y Z # 

Dirtywhirl Tabs (ver.1)

Tv On The Radio Tabs
 Rating:
4/5 (4 votes)
Dirtywhirl lessons Tabs too difficult? Try these video lessons and learn fast
                Intro till 0:20 (i think its played on a bass-guitar)

e------------------------------------|
b------------------------------------|
g------------------------------------| Repeat
d------------------------------------| 
a--------------------------3-3-3-3---|
E-1-1-1-1-1-1-1-1--3-3-3-3-----------|



Verses

e------------------------------------|
b------------------------------------|
g------------------------------------|
d--------------------------5-5-5-5---| 
a-3-3-3-3-3-3-3-3--5-5-5-5-3-3-3-3---|
E-1-1-1-1-1-1-1-1--3-3-3-3-----------|
            
Submit corrections

comments powered by Disqus
↑ Back to top | Tv On The Radio Tabs for Dirtywhirl. Lyrics for acoustic guitar and electric guitar. Tablatures and chords are parodies/interpretations of the original songs. You may use it for private study, scholarship, research or language learning purposes only