» » »

Tuuli, Sunshine Tabs (ver.1)

Artists:  A B C D E F G H I J K L M N O P Q R S T U V W X Y Z # 

Sunshine Tabs (ver.1)

Tuuli Tabs
Rating:
0/5 (0 votes)
Sunshine lessons Tabs too difficult? Try these video lessons and learn fast
                -2-2-2-2----------------------------------------------------------------------
---------2-2-2-2-2-2-2-2------------------------------------------------------
 Intro/Guitar One 6x's (0:00)                                                 

-9---9b11---8-9---9---9b11---8-9---9---9b11---8-9-----------------------------
 Intro/Guitar Two On 2nd repeat (Starts at 0:03)                              

-0-0-0-0-0--------------------------------------------------------------------
-0-0-0-0-0--------------------------------------------------------------------
-1-1-1-1-1-3-3-3-3-3-6-6-6-6-6-5-5-5-5-5--------------------------------------
-2-2-2-2-2-4-4-4-4-4-7-7-7-7-7-6-6-6-6-6--------------------------------------
-2-2-2-2-2-4-4-4-4-4-7-7-7-7-7-6-6-6-6-6--------------------------------------
-0-0-0-0-0-2-2-2-2-2-5-5-5-5-5-4-4-4-4-4--------------------------------------
 (0:14) Guitar One Dist                                                       

-8----------------------------------------------------------------------------
---9--------------------------------------------------------------------------
 (0:17)                                                                       

-2-2-2-2-2-4-4-4-4-4-7-7-7-7-7-6-6-6-6-6--------------------------------------
-2-2-2-2-2-4-4-4-4-4-7-7-7-7-7-6-6-6-6-6--------------------------------------
-0-0-0-0-0-2-2-2-2-2-5-5-5-5-5-4-4-4-4-4--------------------------------------
 Verses pm throughout                                                         

-0-0-0-0-0--------------------------------------------------------------------
-0-0-0-0-0--------------------------------------------------------------------
-1-1-1-1-1-3-3-3-3-3-6-6-6-6-6-5-5-5-5-5--------------------------------------
-2-2-2-2-2-4-4-4-4-4-7-7-7-7-7-6-6-6-6-6--------------------------------------
-2-2-2-2-2-4-4-4-4-4-7-7-7-7-7-6-6-6-6-6--------------------------------------
-0-0-0-0-0-2-2-2-2-2-5-5-5-5-5-4-4-4-4-4--------------------------------------
 Pre-Chorus "Just go away..."                                                 

-9-9-9-9-9-9-9-9-9-9----------------------------------------------------------
-9-9-9-9-9-9-9-9-9-9-9-9-9-9-9-9-9-9-9-9-7-7-7-7-7-7-7-7-7-7-9-9-9-9-9-9-9-9--
-7-7-7-7-7-7-7-7-7-7-9-9-9-9-9-9-9-9-9-9-7-7-7-7-7-7-7-7-7-7-9-9-9-9-9-9-9-9--
---------------------7-7-7-7-7-7-7-7-7-7-5-5-5-5-5-5-5-5-5-5-7-7-7-7-7-7-7-7--
 Chorus "...Now you're all alone..."                                          

-----------------------7---9---10-9-7-9---------------------------------------
-9---9b11r-----------9---9---9------------------------------------------------
 "...You took your sunshine away..." (2:04)                                   

-7--7---5--5------------------5--4--0--5--4--0-0-5--4--0---5--4--0-0----------
 (2:15) "i don't know what to say"                                            

--------9---------------------------------------------------------------------
--------9---------------------------------------------------------------------
--------7---------------------------------------------------------------------
  PrettyPunkPrincess
            
Submit corrections

comments powered by Disqus
↑ Back to top | Tuuli Tabs for Sunshine. Lyrics for acoustic guitar and electric guitar. Tablatures and chords are parodies/interpretations of the original songs. You may use it for private study, scholarship, research or language learning purposes only