» » »

Summer Song Tabs (ver.1)

Artists:  A B C D E F G H I J K L M N O P Q R S T U V W X Y Z # 

Summer Song Tabs (ver.1)

Tuuli
Rating:
0/5 (0 votes)

Tabs too difficult? Try these video lessons and learn fast.
                Tuuli- summer song

Hey ppl, this is my first tab aren’t I so clever and I’m only 12 wow!!!
p.s. Abbey hope you like it !!!! I made it as easy as I could!!!!
Intro ( 1st bit)

E----------------------------------
g----------------------------------
d---7-------7-------7-----------1--
b---7---7---7---7---7---7---9---2-- 
a---5---7---5---7---5---7---9---2--
e-------5-------5-------5---7---0--

 intro( 2nd bit)

E---------------------                 E-------------------------
g---------------------                 g-------------------------
d--------7------------                 d-------7-----------------     
b----7---7---11---9---  (x2)           b—--7—--7---11—--9---14---
a----7---5---11---9---                 a---7---5---11---9---14---
e----5--------9---7---                 e---5-------9----7---12—--

 Verse

e-------------------------------
g-------------------------------
d-------9-------7------------1--
b---7—--9---7---7---7---11---2--   (x2)       
a---7---7---7---5---7---11---2--
e---5-------5-------5--- 9------

Chorus

E--------------------                E-------------------------
g--------------------                g-------------------------
d-------7------------                d-------7-----------------     
b---7---7---11---9---  (x2)          b—--7—--7---11—--9---14---
a---7---5---11---9---                a---7---5---11---9---14---
e---5-------9----7---                e---5-------9----7---12—--



verse 2

E--------------------                 E-------------------------
g--------------------                 g-------------------------
d-------7------------                 d-------7-----------------    
b---7---7---11---9---  (x2)           b—--7—--7---11--—9---14---
a---7---5---11---9---                 a---7---5---11---9---14---
e---5--------9---7---                 e---5--------9---7---12—--

E--------------------                 E-------------------------
g--------------------                 g-------------------------
d-------7------------                 d-------7-----------------     
b---7---7---11---9---  (x2)           b—--7--—7---11--—9---14---
a---7---5---11---9---                 a---7---5---11---9---14---
e---5--------9---7---                 e---5--------9---7---12—--

bridgey bit 1

e------------------------------------
g------------------------------------
d--—7-------7-------7---------------- 
b--—7---7---7---7---7---7---9---14---       (x2) 
a—--5---7---5---7---5---7---9---14---
e-------5-------5-------5---7---12---   

bridgey bit 2

E--------------------                 E-------------------------
g--------------------                 g-------------------------
d-------7------------                 d-------7-----------------     
b---7---7---11---9---  (x2)           b—--7—--7---11—--9---14---
a---7---5---11---9---                 a---7---5---11---9---14---
e---5--------9---7---                 e---5--------9---7---12—--

     
E--------------------                E-------------------------
g--------------------                g-------------------------
d-------7------------                d-------7-----------------     
b---7---7---11---9---                b—--7—--7---11—--9---14---
a---7---5---11---9---                a---7---5---11---9---14---
e---5--------9---7---                e---5--------9---7---12—--
    


     Outro  Chorus
E--------------------                E----------------------------         
g--------------------                g----------------------------
d-------7------------                d----------------------------     
b---7---7---11---9---  (x2)          b---14---12---19---12---19---          
a---7---5---11---9---                a---14---12---19---12---19---
e---5--------9---7---                e---12---10---17---10---17---
            
Tabs too difficult? Try these video lessons and learn fast.




comments powered by Disqus
↑ Back to top | Tablatures and chords are parodies/interpretations of the original songs. You may use it for private study, scholarship, research or language learning purposes only