>
 >
Rockstar Boyfriend

Rockstar Boyfriend Guitar Tabs

Tuuli - Rockstar Boyfriend chords, tabs, tablatures, lyrics

Guitar lessons | Add/correct | Request | Top 50 tabs Artists:  A B C D E F G H I J K L M N O P Q R S T U V W X Y Z 0-9

Rockstar Boyfriend Guitar Tabs – Tuuli

CD, Sheet music, Poster

Do you like Rockstar Boyfriend? Share with your friends now
Tabs

----------------------------------------------------------------------------|
----------------------------------------------------------------------------|
----------------------------------------------------------------------------|
--8-8-------------3----10---------------------------------------------------|
--8-8-------------3----10----x2---------------------------------------------|
--6-6-------------1-----8---------------------------------------------------|
      let  ring              intro gt1

----------------------------|----------------|------------------------------|
----------------------------|----------------|------------------------------|
-/14-14-14p12-10-10---12-10-|-12-14-12-10-7--|-9-10-------------------------|
----------------------------|----------------|------------------------------|
----------------------------|----------------|------------------------------|
----------------------------|----------------|------------------------------|
  intro gt2                   first time        second time

----------------------------------------------------------------------------|
----------------------------------------------------------------------------|
----------------------------------------------------------------------------|
----------------------------------------------------------------------------|
--12-12-10-10-8-8-7-7-------------------------------------------------------|
--10-10--8--8-6-6-5-5-------------------------------------------------------|
   verse gt1

----------------------------------------------------------------------------|
----------------------------------------------------------------------------|
--------14-12-------12-10-----10-9-----9-10---------------------------------|
--12-12-------10-10-------8-8------7-7--------------------------------------|
----------------------------------------------------------------------------|
----------------------------------------------------------------------------|
    Verse gt2

----------------------------------------------------------------------------|
----------------------------------------------------------------------------|
----------------------------------------------------------------------------|
------------------3-10------------------------------------------------------|
-12-12-10-10-8-8--3-10------------------------------------------------------|
-10-10--8--8-6-6--1--8------------------------------------------------------|
 Pre chrous

----------------------------------------------------------------------------|
----------------------------------------------------------------------------|
----------------------------------------------------------------------------|
-8-8--3-10------------------------------------------------------------------|
-8-8--3-10------------------------------------------------------------------|
-6-6--1--8------------------------------------------------------------------|
 Chrous

----------------------------------------------------------------------------|
----------------------------------------------------------------------------|
----------------------------------------------------------------------------|
--5-5---3--10----5-5---3--10---8-8---3--10---5-5---3--10--------------------|
--5-5---3--10----5-5---3--10---8-8---3--10---5-5---3--10--------------------|
--3-3---1---8----3-3---1---8---6-6---1---8---3-3---1---8--------------------|
 interlude

----------------------------------------------------------------------------|
---------14b----------------------------------------------------------------|
-12b-----------------12br---------------------------------------------------|
-------------------------12-------------------------------------------------|
----------------------------------------------------------------------------|
----------------------------------------------------------------------------|
  solo





Comments


Popular Tuuli tabs & chords
Rockstar Boyfriends 1 Bass Tabs
Summer Song 1 Bass Tabs
Paljon Onnea Vaan Chords
Salaisuudet Chords
Paljon Onnea Vaan Tabs
Summer Song Tabs
Sunshine Tabs
Whipped Tabs
Its Over Ukulele
Paljon Onnea Vaan Ukulele


Song lyrics



↑ Back to top | Tablatures and chords are parodies/interpretations of the original songs. You may use it for private study, scholarship, research or language learning purposes only
© 2014 AZChords.com Contact us | Privacy policy | DMCA | Add/correct tabs | Request tabs | Top 50 tabs