» » »

Cursed Be Iron Tabs (ver.1)

Artists:  A B C D E F G H I J K L M N O P Q R S T U V W X Y Z # 

Cursed Be Iron Tabs (ver.1)

Turisas
Rating:
2/5 (2 votes)

Tabs too difficult? Try these video lessons and learn fast.
                                  Album:The Vargarian Way
                Copyright 2007 All Rights Reserved.

Keys:
/- Slide Up
X- How Many Times Played
PM- Palm Mute
BU- Bend Up


Intro- Thunder Can Be Heard, Soon A Blacksmiths Hammer Joins In.


This Riff Can Be Heard Throughout Song- Use High Distortion   0:08

e|--------------------------------------------------------------------------|
b|--------------------------------------------------------------------------|
g|--------------------------------------------------------------------------|
d|-7--7--5--7--5-/-7--------------------------------------------------------|
a|-5--5--3--5--3-/-5---7---7--5--7--5-/--7----------------------------------|
D|---------------------5---5--3--5--3-/--5-------------X2-------------------|

In Comes Vocals Only Accordian plays


Pick Slide///////////////////////////////////////////////////////////// 1:19


Main Riff Plays Again                                               1:21
e|--------------------------------------------------------------------------|
b|--------------------------------------------------------------------------|
g|--------------------------------------------------------------------------|
d|-7--7--5--7--5-/-7--------------------------------------------------------|
a|-5--5--3--5--3-/-5---7---7--5--7--5-/--7----------------------------------|
D|---------------------5---5--3--5--3-/--5--------------X4------------------|


More Vocals


This Small Riff kicks In.                                           3:32
e|--------------------------------------------------------------------------|
b|--------------------------------------------------------------------------|
g|--------------------------------------------------------------------------|
d|--------------------------------------------------------------------------|
a|-------5--5--------4--4---------3-3---------2-----------------------------|
D|--5-5---------4-4----------3-3--------2-2-------------X1------------------|

This Fill-In Starts                                                 3:34
e|--------------------------------------------------------------------------|
b|--------------------------------------------------------------------------|
g|--------------------------------------------------------------------------|
d|--7--------7---------7----/--14----7--------------------------------------|
a|--5-BU-----5--BU-----5--BU/--12----5-BU-----------------------------------|
D|----------------------------------------------X2--------------------------|

Some Palm Muting Starts                                              3:51
e|--------------------------------------------------------------------------|
b|--------------------------------------------------------------------------|
g|--------------------------------------------------------------------------|
d|--------------------------------------------------------------------------|
a|--------------------------------------------------------------------------|
D|---3--3---3----3---3------3-----3---3-------3---------3-----3-----3--X2---|

e|--------------------------------------------------------------------------|
b|--------------------------------------------------------------------------|
g|--------------------------------------------------------------------------|
d|-7--7--5--7--5-/-7--------------------------------------------------------|
a|-5--5--3--5--3-/-5---7---7--5--7--5-/--7----------------------------------|
D|---------------------5---5--3--5--3-/--5--------------X4------------------|

Black smith comes in Hammer to keep up beat with original riff


e|--------------------------------------------------------------------------|
b|--------------------------------------------------------------------------|
g|--------------------------------------------------------------------------|
d|-7--7--5--7--5-/-7--------------------------------------------------------|
a|-5--5--3--5--3-/-5---7---7--5--7--5-/--7----------------------------------|
D|---------------------5---5--3--5--3-/--5--------------X1------------------|
            
Tabs too difficult? Try these video lessons and learn fast.




comments powered by Disqus
↑ Back to top | Tablatures and chords are parodies/interpretations of the original songs. You may use it for private study, scholarship, research or language learning purposes only