» » »

Battle Metal Tabs (ver.2)

Artists:  A B C D E F G H I J K L M N O P Q R S T U V W X Y Z # 

Battle Metal Tabs (ver.2)

Turisas
Rating:
0/5 (0 votes)

Hard to play? Try these video lessons and learn fast.
                (Intro)
done this by ear.

hello.

i like potatoes. this is a great song

guitar 1

E|-----------------------------------------------------------|
B|-----------------------------------------------------------|
G|----4--6--7----6--4--4-------------------------------------|
D|-4-------------------------5--7----5--3--5-----------------|
A|-----------------------------------------------------------|
E|-----------------------------------------------------------|

E|----------------------------------------------------------|
B|----------------------7-----------------------------------|
G|----4--6--7----6--4------- 7--4----6--4--3----------------|
D|-4--------------------------------------------------------|
A|----------------------------------------------------------|
E|----------------------------------------------------------|

guiatr 2


E|-----------------------------------------------------------|
B|-----------------------------------------------------------|
G|-6--------6---9--------------------------------------------|
D|-6-7-4-6--6-7-9-4-4-4-4-4-4-4-4----------------------------|
A|-4-7-4-6--4-7-7-4-4-4-4-4-4-4-4----------------------------|
E|---5-2-4----5-7-6-6-6-6-6-6-6-6----------------------------|
                  p p p p p p p p

p= palm mute

go easy its my first tab.

i love u all.
            
Hard to play? Try these video lessons and learn fast. | Correct




comments powered by Disqus
↑ Back to top | Tablatures and chords are parodies/interpretations of the original songs. You may use it for private study, scholarship, research or language learning purposes only