» » »

Turin Brakes, Underdog (Save Me) Tabs (ver.1)

Artists:  A B C D E F G H I J K L M N O P Q R S T U V W X Y Z # 

Underdog (Save Me) Tabs (ver.1)

Turin Brakes Tabs
Rating:
0/5 (0 votes)
Underdog (Save Me) lessons Tabs too difficult? Try these video lessons and learn fast
                -------------------------------------------------------------------------------
			Underdog(Save Me) - Turin Brakes
-------------------------------------------------------------------------------

Notes:		This was starting to get on my tits, I dont think there are
		any other accurate tabs of the solo on the net so I tabbed
		this one out. This tab maps the notes of the solo. I havent
		gone into a great deal of detail as far as hammer ons pulls
		offs etc, you really need to listen to this one while you
		attempt it. There is a difficult trill during the 2:48-2:52
		section which can be achieved by using a series of hammer on
		and pull offs. Good luck!

Bm	A	G
2	5	3
2	7	5
4	7	5
4	6	4
3	5	3
2	5	3

Verse Chords - Bm A G (repeated)

Chorus Chords - A G E (repeated)

2:36 - 2:40
---------------------------10-------10------------------------------------------------|
------10-12-10----12~~~~12----12-12---------------------------------------------------|
---11----------11---------------------------------------------------------------------|
12------------------------------------------------------------------------------------|
--------------------------------------------------------------------------------------|
--------------------------------------------------------------------------------------|

2:41 - 2:47
12-12-12------------------------------------------------------------------------------|
---------12---------------------------------------------------------------------------|
------------9-7---7---9----7----------------------------------------------------------|
----------------9---9--------9-7------------------------------------------------------|
---------------------------------9-7----------7---------------------------------------|
-------------------------------------10-7-10------------------------------------------|

2:48 - 2:52
------------------------------------------------10--------7-------10------------------|
-----------------------5--7875-7875-7875-7-8-10----7-8-10---10>12----12---------------|
---4--6764-6764-6764-7----------------------------------------------------------------|
-7------------------------------------------------------------------------------------|
--------------------------------------------------------------------------------------|
--------------------------------------------------------------------------------------|

2:53 - 3:01
-12>14-12--------12>14-12-------12>14-12-------12>14-12-------12>14-12-------12>14-12-|
----------15-12-----------15-12----------15-12----------15-12----------15-12----------|
--------------------------------------------------------------------------------------|
--------------------------------------------------------------------------------------|
--------------------------------------------------------------------------------------|
--------------------------------------------------------------------------------------|

3:01 - END
--------------------------------------------------------------------------------------|
-15-12--------------------------------------------------------------------------------|
-------14>11-9h11p9-------------------------------------------------------------------|
--------------------12-9-12--9--------------------------------------------------------|
--------------------------------------------------------------------------------------|
--------------------------------------------------------------------------------------|
            
Submit corrections

comments powered by Disqus
↑ Back to top | Turin Brakes Tabs for Underdog (Save Me). Lyrics for acoustic guitar and electric guitar. Tablatures and chords are parodies/interpretations of the original songs. You may use it for private study, scholarship, research or language learning purposes only