» » »

Turin Brakes, Underdogsave Me Tabs (ver.1)

Artists:  A B C D E F G H I J K L M N O P Q R S T U V W X Y Z # 

Underdogsave Me Tabs (ver.1)

Turin Brakes Tabs
 Rating:
4/5 (4 votes)
Underdogsave Me lessons Tabs too difficult? Try these video lessons and learn fast
                * Intro & Verse:
     Bm7            A              G
E||--2-----------|--0-----------|--3-----------||
B||--3-----------|--2-----------|--3-----------||
G||--2-----------|--2-----------|--0-----------||
D||--4-----------|--2-----------|--0-----------||
A||--2-----------|--0-----------|--2-----------||
E||--------------|--------------|--3-----------||


* 2nd guitar during verse 2 & 4:
                                                      

E||--------------------0----|--------------------0----|
B||--3-----3-----3----------|--3-----3-----3----------|
G||-----6-----6-----6-------|-----6-----6-----6-------|
D||-------------------------|-------------------------|
A||-------------------------|-------------------------|
E||-------------------------|-------------------------|
                                                    
E||--------------------5----|--------5----------5----||
B||--3-----3-----3----------|--3----------3----------||
G||-----6-----6-----6-------|-----6----------6-------||
D||-------------------------|------------------------||
A||-------------------------|------------------------||
E||-------------------------|------------------------||


* Chorus:
     A          F#m        G          E  
E||--0-------|--2-------|--3-------|--0-------||
B||--2-------|--2-------|--3-------|--0-------||
G||--2-------|--2-------|--0-------|--1-------||
D||--2-------|--4-------|--0-------|--2-------||(x3)
A||--0-------|--4-------|--2-------|--2-------||
E||----------|--2-------|--3-------|--0-------||

     A          F#m        G   Fm       E  
E||--0-------|--2-------|--3---2-----|--0-------||
B||--2-------|--2-------|--3---2-----|--0-------||
G||--2-------|--2-------|--4---2-----|--1-------||
D||--2-------|--4-------|--5---4-----|--2-------||
A||--0-------|--4-------|--5---4-----|--2-------||
E||----------|--2-------|--3---2-----|--0-------||


* 2nd guitar during chorus:
                                                     
E||--------------------17-|--------------------17-|
B||-15----15----15--------|-15----15----15--------|
G||----18----18----18-----|----18----18----18-----|
D||-----------------------|-----------------------|
A||-----------------------|-----------------------|
E||-----------------------|-----------------------|
                                                      

E||--------------------17-|-------------------19-||
B||-15----15----15--------|-15----15----15-------||
G||----18----16----16-----|----16----16----16----||
D||-----------------------|----------------------||(x3)
A||-----------------------|----------------------||
E||-----------------------|----------------------||

Chorus end:
E||-15--------14--------|-12----12------12-------12-||
B||---15--------14------|---12------12-----12-------||
G||-----16--------14----|-----13------13-----13-----||
D||---------------------|---------------------------||
A||---------------------|---------------------------||
E||---------------------|---------------------------||

or, if you can't play the 2nd guitar that high, during
the chorus:

E||--------------------5----|--------------------5----|
B||--3-----3-----3----------|--3-----3-----3----------|
G||-----6-----6-----6-------|-----6-----6-----6-------|
D||-------------------------|-------------------------|
A||-------------------------|-------------------------|
E||-------------------------|-------------------------|
                                                     
E||-------------------5---|-------------------7--||
B||-3-----3-----3---------|-3-----3-----3--------||
G||----6-----4-----4------|----4-----4-----4-----||
D||-----------------------|----------------------||(x3)
A||-----------------------|----------------------||
E||-----------------------|----------------------||

E||-3------------2--------|-0-----0------0------0-||
B||---3------------2------|---0-----0------0------||
G||-----4------------2----|-----1-----1------1----||
D||-----------------------|-----------------------||
A||-----------------------|-----------------------||
E||-----------------------|-----------------------||
            
Submit corrections

comments powered by Disqus
↑ Back to top | Turin Brakes Tabs for Underdogsave Me. Lyrics for acoustic guitar and electric guitar. Tablatures and chords are parodies/interpretations of the original songs. You may use it for private study, scholarship, research or language learning purposes only