» » »

Rain City Chords (ver.2)

Artists:  A B C D E F G H I J K L M N O P Q R S T U V W X Y Z # 

Rain City Chords (ver.2)

Turin Brakes
Rating:
0/5 (0 votes)

Hard to play? Try these video lessons and learn fast.
                This song is very easy once you've found out that it is tuned down one half-step. There
are some hammerings etc. that you should be able to figure out yourselves. I hope the
guy who posted the last tab (that all the other pages copied) was still together with 
his girlfriend after he'd played it to her...

Verse (Open my eyes, had a dream last night...)
e|---2---|-------|-----------|
B|---3---|---3---|---3-------|
G|---2---|-------|-----------|
D|-------|---2---|-----------|
A|---x---|---3---|---2-------|
E|---x---|---x---|---3-(2-3)-|

Chorus (Oh my love I can't let go...)
e|---x---|-------|-------|
B|-------|---3---|---2---|
G|-------|---4---|---4---|
D|-------|---4---|---2---|
A|---2---|---2---|-------|
E|---3---|---x---|---x---|

Bridge (Almost too much...)
e|-------|-------|-------|
B|-------|---2---|-------|
G|---3---|---2---|---1---|
D|---4---|---2---|---2---|
A|---4---|-------|---2---|
E|---2---|-------|-------|

Bridge Continued - End (...so slowly...)
e|-------|---x---|-------|---2---|-------|
B|---3---|-------|---2---|---3---|---3---|
G|---2---|-------|---4---|---2---|-------|
D|-------|-------|---2---|-------|---2---|
A|-------|---2---|-------|---x---|---3---|
E|---2---|---3---|---x---|---x---|---x---|
            
Hard to play? Try these video lessons and learn fast. | Correct




comments powered by Disqus
↑ Back to top | Tablatures and chords are parodies/interpretations of the original songs. You may use it for private study, scholarship, research or language learning purposes only