» » »

Turin Brakes, Pain Killer Tabs (ver.2)

Artists:  A B C D E F G H I J K L M N O P Q R S T U V W X Y Z # 

Pain Killer Tabs (ver.2)

Turin Brakes Tabs
 Rating:
4/5 (4 votes)
Pain Killer lessons Tabs too difficult? Try these video lessons and learn fast
                "(2)
intro:
e-----------0---------------
B-------2-------------------
G---------2----4-4--4--7-7--
D-----2--------5-5--5--7-7--
A---0----------5-5--5--5-5--
E---------------------------

main riff:
e------------0--3-3--3-------
B-------2----2--3-3--3--7-7--
G---------2--2--4-4--4--7-7--
D-----2---------5-5--5--7-7--
A---0-----------5-5--5--5-5--
E---------------3-3--3-------

e------------0--3-3--3-------
B-------2----2--3-3--3--7-7--
G---------2--2--4-4--4--7-7--
D-----2---------5-5--5--7-7--
A---0-----------5-5--5--5-5--
E---------------3-3--3-------

e------------0--3-3--3-------
B-------2----2--3-3--3--7-7--
G---------2--2--4-4--4--7-7--
D-----2---------5-5--5--7-7--
A---0-----------5-5--5--5-5--
E---------------3-3--3-------
"            
Submit corrections

comments powered by Disqus
↑ Back to top | Turin Brakes Tabs for Pain Killer. Lyrics for acoustic guitar and electric guitar. Tablatures and chords are parodies/interpretations of the original songs. You may use it for private study, scholarship, research or language learning purposes only