» » »

Turin Brakes, Mind Over Money Tabs (ver.1)

Artists:  A B C D E F G H I J K L M N O P Q R S T U V W X Y Z # 

Mind Over Money Tabs (ver.1)

Turin Brakes Tabs
Rating:
5/5 (1 vote)
Mind Over Money lessons Tabs too difficult? Try these video lessons and learn fast
                
   This is my version of this song, any questions or comments E-mail me. 
 The D9/F# is a D9 w/ F# bass.  


Verse: x8
    C#m              Cmaj7          G              F#m
e|--x--x--x--x-----x--x--x--x-----3--3--3--3-----2--2--2--2----------|
b|--9--9--9--9-----8--8--8--8-----3--3--3--3-----2--2--2--2----------|
g|--9--9--9--9-----9--9--9--9-----4--4--4--4-----2--2--2--2----------|
d|--9--9--9--9-----9--9--9--9-----5--5--5--5-----2--2--2--2----------|
a|--x--x--x--x-----x--x--x--x-----5--5--5--5-----0--0--0--0----------|
e|--9--9--9--9-----8--8--8--8-----3--3--3--3-----2--2--2--2----------|

    
  ( Play this Little Ditty during the verse.) 
e|-9-12-12-9-9-12-12-11-10-10-12-12-10-12-12-10---------------------
b|---------------------------------------------12-12-12-12-12-12-12-
g|------------------------------------------------------------------ ~
d|------------------------------------------------------------------
a|------------------------------------------------------------------
e|------------------------------------------------------------------


------9----|
-12-13-----|
-----------|
-----------|
-----------|
-----------|

Chorus: x2

      A              F#m              E               G
e|--x--x--x--x-----2--2--2--2-----0--0--0--0-----2--2--2--2---------|
b|--2--2--2--2-----2--2--2--2-----0--0--0--0-----2--2--2--2---------|
g|--2--2--2--2-----2--2--2--2-----1--1--1--1-----0--0--0--0---------|
d|--2--2--2--2-----2--2--2--2-----2--2--2--2-----0--0--0--0---------|
a|--0--0--0--0-----0--0--0--0-----2--2--2--2-----2--2--2--2---------|
e|--x--x--x--x-----2--2--2--2-----0--0--0--0-----3--3--3--3---------|


    A                F#m              E            D9/F#
e|--x--x--x--x-----2--2--2--2-----0--0--0--0-----0--0--0--0---------|
b|--2--2--2--2-----2--2--2--2-----0--0--0--0-----3--3--3--3---------|
g|--2--2--2--2-----2--2--2--2-----1--1--1--1-----2--2--2--2---------|
d|--2--2--2--2-----2--2--2--2-----2--2--2--2-----0--0--0--0---------|
a|--0--0--0--0-----0--0--0--0-----2--2--2--2-----0--0--0--0---------|
e|--x--x--x--x-----2--2--2--2-----0--0--0--0-----2--2--2--2---------|
            
Submit corrections

comments powered by Disqus
↑ Back to top | Turin Brakes Tabs for Mind Over Money. Lyrics for acoustic guitar and electric guitar. Tablatures and chords are parodies/interpretations of the original songs. You may use it for private study, scholarship, research or language learning purposes only