» » »

Turin Brakes, Fishing For A Dream Tabs (ver.2)

Artists:  A B C D E F G H I J K L M N O P Q R S T U V W X Y Z # 

Fishing For A Dream Tabs (ver.2)

Turin Brakes Tabs
 Rating:
4.2/5 (5 votes)
Fishing For A Dream lessons Tabs too difficult? Try these video lessons and learn fast
1
                (Intro)
This represents my interpretation of the intro/chorus/part verse of this way cool song. 
is the first time I have submitted a tab so please get in touch and let me know what you 
Enjoy! Bohemiman.

Chords:
    hi--Lo
E---x546-|7x
D---x324-|5x
C---0102-|3x
D*--x7775x
C*--x5553x
Am--01220x
Am*-x5570x
G---x879xx]
D**-577xxx]Any inversion of these triads works well. I have only tabbed
G*--334xxx]these four to save time. How lazy?
D***232xxx]

e-----------------------0---------------------0--------------5--3--2----|
b--5-----5--3---3----1---1-----5----7-7----1--1-1---5--7--8--7--3--3----|
g------4--------2----0----0----5----7-7----2-----2--5--7--7--7--4--2----|
D----6--------4----------------5----7-7-------------5--7--9-------------|
A--7--------5------3---3-----3---3-5--5--0--0-------3--5----------------|
E-----------------------------------------------------------------------|
   E        D      C         C*    D*    Am         C* D* G  D**G* D***

e-------0------------/
b----1--1-1------1---/
g----2----2------0---/
D--------------------/
A--0--0------2-3-----/
E--------------------/

   Am          C
            
Submit corrections

comments powered by Disqus
↑ Back to top | Turin Brakes Tabs for Fishing For A Dream. Lyrics for acoustic guitar and electric guitar. 1 Tablatures and chords are parodies/interpretations of the original songs. You may use it for private study, scholarship, research or language learning purposes only