» » »

Turin Brakes, Everybody Knows Tabs (ver.1)

Artists:  A B C D E F G H I J K L M N O P Q R S T U V W X Y Z # 

Everybody Knows Tabs (ver.1)

Turin Brakes Tabs
 Rating:
4/5 (4 votes)
Everybody Knows lessons Tabs too difficult? Try these video lessons and learn fast
1
                TURIN BRAKES - Everybody Knows

Standard Tuning   4/4 time

Intro chords (same verse)

      G    Bb        A
E|----0----0----|----5----|
B|----0----0----|----5----|
G|----4----7----|----6----|
D|----5----8----|----7----|
A|----5----8----|----7----|
E|----3----6----|----5----|

Play chords 4 times for intro

(intro)
(verse)
G       Bb           A
G       Bb               A
The way you watch the TV

(chorus)

      A    C
E|----0----0----|
B|----0----0----|
G|----6----9----|
D|----7----10---|
A|----7----10---|
E|----5----8----|

A    C
A    C

(verse)

Gale plays over the chords on this verse...

E|----------------10-12------------|
B|----------10-12------10-12-------|
G|----9—10-------------------------|
D|---------------------------------|  [Repeat]
A|---------------------------------|
E|---------------------------------|

The way the words fall out your mouth
The way you break into a smile
The way you're biting your tongue
The way that you stumble home

(chorus)

(bridge)
      E    G         A    C
E|----0----3----|----0----0----|
B|----0----3----|----0----0----|
G|----1----0----|----6----9----|
D|----2----0----|----7----10---|
A|----2----2----|----7----10---|
E|----0----3----|----5----8----|

E        G
Don't you leave me on the floor
E         G
Put your answers for everything
E         G
Don't you leave me
A      C
A      C

Don't you leave me on the floor
Put your answers for everything
Don't you leave me

(verse)
G       Bb           A
G       Bb               A
The way you watch the TV

(chorus)

(Interlude)

(chorus)

(Interlude)
            
Submit corrections

comments powered by Disqus
↑ Back to top | Turin Brakes Tabs for Everybody Knows. Lyrics for acoustic guitar and electric guitar. 1 Tablatures and chords are parodies/interpretations of the original songs. You may use it for private study, scholarship, research or language learning purposes only