» » »

Dark On Fire Bass tabs (ver.1)

Artists:  A B C D E F G H I J K L M N O P Q R S T U V W X Y Z # 

Dark On Fire Bass tabs (ver.1)

Turin Brakes
Rating:
0/5 (0 votes)

Hard to play? Try these video lessons and learn fast.
                ---------------------------------------------------------
	 Turin Brakes – Dark on Fire
---------------------------------------------------------

You may want to listen along a few times to get the patterns right, Ive tried to help 
as much as I can.

At the very beginning there is a serious lack of bass, feel free to experiment but the 
with the verse, just at the end of each verse play:

Verse
G|----------|
D|----------|
A|----------| (x8)
E|--2~---3~-|

Chorus
G|---------------------------------|
D|---------------------------------|
A|--555-55--555-55--555-55---------| (x4)
E|--------------------------333-33-|

G|---------------------------------|
D|---------------------------------|
A|--222222222222222----------------|
E|-------------------33333---7~----|

Mid-Section
G|---------------------------------|
D|---------------------------------|
A|--2~-----------------------------| (x4)
E|------2~----/----7~------7~------|

Bride (“ooooh ooh”)
G|-------------------------------------|
D|-------------------------------------|
A|-------------------------------------| (x4)
E|--777777777777777777777777777777777--|

Then back to the chorus until the end. Enjoy :)
            
Hard to play? Try these video lessons and learn fast. | Correct




comments powered by Disqus
↑ Back to top | Tablatures and chords are parodies/interpretations of the original songs. You may use it for private study, scholarship, research or language learning purposes only