>
 >
Thugz Mansion 1

Thugz Mansion 1 Guitar Tabs

Tupac Shakur - Thugz Mansion 1 chords, tabs, tablatures, lyrics

Guitar lessons | Add/correct | Request | Top 50 tabs Artists:  A B C D E F G H I J K L M N O P Q R S T U V W X Y Z 0-9

Thugz Mansion 1 Guitar Tabs – Tupac Shakur

CD, Sheet music, Poster

Do you like Thugz Mansion 1? Share with your friends now
Bass TabsChordsTabsTabs v2Tabs v10Tabs v3Tabs v4Tabs v5Tabs v6Tabs v7Tabs v8Tabs v9Ukulele

This tab is purely lead guitar. The rhythm guitar is for 
the chords and how its played. However, everything else is lead.
Leave your criticisms.

rhythm guitar
    G#maj             Cm7          Bbm7-Cm7-C#maj7  Bbm7-Cm7-Gdim
e|---------------------------------------------------------6---------------|
B|----4-x-4-------------4-x-4----------2--4-6---------2--4-5---------------|
G|----5-x-5-------------3-x-3----------1--3-5---------1--3-6---------------|
D|----6-x-6-------------5-x-5----------3--5-6---------3--5-5---------------|
A|--------------------3---x-3----------1--3-4---------1--3-----------------|
E|--4---x-4----------------------------------------------------------------|

Intro:
e|----------------|
B|----------------|
G|---4\3-4\3------|
D|----------------|
A|----------------|
E|----------------|

lead guitar 
e|--------------------------------6\4--------------------------------------|
B|-----------------------------4/6-------------4/6\4-----------------------|
G|-----------6p5---0------------------------------------------6p5----0-----|
D|--------------8p6----------------------------------------------8p6---6---|
A|-------------------------------------------------------------------------|
E|-------------------------------------------------------------------------|

e|------------4p3---4p3-------4p3-4h6-8/9\8--/6----------------------------|
B|---------------4-4------------------------------------------9p8----------|
G|----------------5----------------------------------------------10p8-8\6--|
D|-------------------------------------------------------------------------|
A|-------------------------------------------------------------------------|
E|-------------------------------------------------------------------------|

e|---------------/4-----3h4------------------------------------------------|
B|-------------------------4------------------------------------9p8--------|
G|--------------------------5-2/3----------------------------5-8---8-------|
D|--------------------------------------------------------6/8--------------|
A|-------------------------------------------------------------------------|
E|-------------------------------------------------------------------------|

Verse 1: (Tupac - rap verse)
lead guitar 
e|-----------------/8---------------------------------------4p3------------|
B|-----------------------------8h9p8---------------------------4-----------|
G|-----------5h6p5----------------------------------------------5-4/5-4/5--|
D|-------------------------------------------------------------------------|
A|-------------------------------------------------------------------------|
E|-------------------------------------------------------------------------|

e|----------4p3----------------3h4-----------------------------4/6\4-------|
B|--------------------------------4----------------------------4/6\4-4-----|
G|-------------4\3-4\3-------------5-2/3------------------------------5p3--|
D|-----------------------------------------------------------------------6-|
A|-------------------------------------------------------------------------|
E|-------------------------------------------------------------------------|

e|-------------------------------------------------------------------------|
B|---------------4--------------4/5-6-5\4----------------------------------|
G|-----------3h5---5p3--------------------------------------6p5------------|
D|-------------------------------------------------------------8p6-6p5h6---|
A|-------------------------------------------------------------------------|
E|-------------------------------------------------------------------------|
 
e|-----------4p3----3------------4h5h6-------------------------------------|
B|--------------4p2-4-----------------4h6----------------------------------|
G|----------------------------------------------------------6p5------------|
D|-------------------------------------------------------------8p6-6p5-----|
A|-------------------------------------------------------------------------|
E|-------------------------------------------------------------------------|

Chorus:
lead guitar 
e|-------------3h4-x-------------------------------------------------------|
B|-----4-x-4---4---x-----4-x-4------------2--4------2--4-------------------|
G|-----5-x-5-------------3-x-3--6p5-------1--3------1--3-------------------|
D|-----6-x-6-------------5-x-5-----8p6----3--5/8----3--5/6-----------------|
A|---------------------3---x-3------------1--3------1--3-------------------|
E|---4---x-4---------------------------------------------------------------|

e|-------------3h4p3-------------------------------------6--6---6----------|
B|-----4-x-4---4----4----4-x-4--6p4-------2--4-4----2--4-5---5-------------|
G|-----5-x-5--------5----3-x-3-----6p5-3--1--3-5----1--3-6----6------------|
D|-----6-x-6-------------5-x-5------------3--5-6----3--5-5-----------------|
A|---------------------3---x-3------------1--3-4----1--3-------------------|
E|---4---x-4---------------------------------------------------------------|

Verse 2: (Nas - rap verse)
lead guitar 
e|----------4/6\4/6\4------------------------------------------------------|
B|----------4/6\4/6\4----------8p6---------------------------6h8/9\8-6h8---|
G|--------------------------------8p6\5---------------------------------8--|
D|-------------------------------------------------------------------------|
A|-------------------------------------------------------------------------|
E|-------------------------------------------------------------------------|

e|------------/8-6--------------/8-4---------------------------------------|
B|--------------------------------------2--4-6---------9p8-6---------------|
G|--------------------------------------1--3-5--------------8--6p5---------|
D|--------------------------------------3--5-6--------------------8p6------|
A|--------------------------------------1--3-5-----------------------------|
E|-------------------------------------------------------------------------|
 
e|-------------------------------------------------------------------------|
B|-----------------------------6/8------2--4-6-----------------------------|
G|-----------------------------6/8------1--3-5----------------------1h3p1=-|
D|------------6/8-----------------------3--5-6-------------------1h3-----=-|
A|--------------------------------------1--3-5--------------1h3/4----------|
E|-----------------------------------------------------1h3/4---------------|

e|-------------6p4-x----------4/6-4/6-4--------4h6p4---------------6-------|
B|----------------------------4/6-4/6-4-------------6--------------6-------|
G|------------------------------------------------------6p5---0------------|
D|---------------------------------------------------------8p6-------------|
A|-------------------------------------------------------------------------|
E|-------------------------------------------------------------------------|

Chorus 2:
lead guitar 
e|-------------3h4-x------------3h4-3h4-3----------------6--6---4----------|
B|-----4-x-4---4---x-----4-x-4--4---4---4-2--4-4----2--4-5----6------------|
G|-----5-x-5-------------3-x-3------------1--3-5----1--3-6-----------------|
D|-----6-x-6-------------5-x-5------------3--5-6----3--5-5-----------------|
A|---------------------3---x-3------------1--3-4----1--3-------------------|
E|---4---x-4---------------------------------------------------------------|

e|------------4p3h4p3----------------------------------------------6/7-6/8-|
B|-----4-x-4--4--------4-------6p4---------------------9p8-----------------|
G|-----5-x-5----------5-----------6p5-3-------------------10p8-6\5---------|
D|-----6-x-6---------6-----------------6/8------------------------8--------|
A|-------------------------------------------------------------------------|
E|---4---x-4---------------------------------------------------------------|

Verse 3: (Tupac - 2nd rap verse)
lead guitar 
e|------------8p6-6---------------------------------/3---------------------|
B|---------------9-9--------------8---6-------------/4---------------------|
G|---------------------------------6h8-8-------------------6p5-----0-------|
D|------------------------------------------------------------8p6-6-6------|
A|-------------------------------------------------------------------------|
E|-------------------------------------------------------------------------|

e|----------6p4----------------3h4h5h6-----------4-------------------------|
B|-------------6p4-6------------------4h6----------------------------------|
G|------------------------------------------------------6p5----------------|
D|------------------6/8------------------------------------8p6-6p5-6-------|
A|-------------------------------------------------------------------------|
E|-------------------------------------------------------------------------|
 
e|--------/8-6----------------3----------------4p3-------------------------|
B|--------/8-6-----------------4-4-6-4-------------------------------------|
G|------------------------------5-----------------6------------------------|
D|-------------------------------------------------------6--6p5h6p5--------|
A|-----------------------------------------------------------------6-------|
E|-------------------------------------------------------------------------|

e|-----------4h6p4------------------------------4---4p3----------------4-6-|
B|----------------------------------------/6--8-4------4-------------------|
G|--------------------------------6h8p6h8-/6--8---------5/6\5---0----------|
D|----------------------------8h10---------------------------8p6-----------|
A|-------------------------------------------------------------------------|
E|-------------------------------------------------------------------------|

Chorus 3:
lead guitar 
e|-------------3h4-x------------3h4-3h4-3----3-----------6------4----------|
B|-----4-x-4---4---x-----4-x-4--4---4---4-4--4-4----2--4-5----6------------|
G|-----5-x-5-------------3-x-3------------5----5----1--3-6-----------------|
D|-----6-x-6-------------5-x-5-----------------6----3--5-5-----------------|
A|---------------------3---x-3-----------------4----1--3-------------------|
E|---4---x-4---------------------------------------------------------------|

e|-------------3h4-x-------------------------------------6-----------------|
B|-----4-x-4---4---x-----4-x-4------------2--4-4----2--4-5--9\8-9----------|
G|-----5-x-5-------------3-x-3------------1--3-5----1--3-6-----------------|
D|-----6-x-6-------------5-x-5-----5h6----3--5-6----3--5-5-----------------|
A|---------------------3---x-3--6h8---/8--1--3-4----1--3-------------------|
E|---4---x-4---------------------------------------------------------------|

Outro:
lead guitar 
e|---------/13-13-11------9p8----------------------------------------------|
B|------8h9------------------11p9------9p8---------------------/13-11------|
G|----------------------------------------10p8-------------8h10------------|
D|----------------------------------------------------8h10-----------------|
A|----------------------------------------------/8-------------------------|
E|-------------------------------------------------------------------------|

e|-------------------------------------------------------------------------|
B|---9-9-9-9-9h11p9-9h11p9-------------------------------------------------|
G|------------------------8------------------------------------------------|
D|-------------------------11-10-10-8--------------------------------------|
A|---------------------------------8-11------------------------------------|
E|-------------------------------------------------------------------------|





Comments


Popular Tupac Shakur tabs & chords
All About U Bass Tabs
Holla If Ya Hear Me Bass Tabs
Thugz Mansion Bass Tabs
California Love Chords
Changes 1 Chords
Ghetto Gospel 2 Chords
Ambitionz Az A Ridah 1 Tabs
Thugz Mansion 8 Tabs
Thugz Mansion 9 Tabs
Thugz Mansion Ukulele


Song lyrics



↑ Back to top | Tablatures and chords are parodies/interpretations of the original songs. You may use it for private study, scholarship, research or language learning purposes only
© 2014 AZChords.com Contact us | Privacy policy | DMCA | Add/correct tabs | Request tabs | Top 50 tabs