» » »

Thugz Mansion Bass tabs (ver.1)

Artists:  A B C D E F G H I J K L M N O P Q R S T U V W X Y Z # 

Thugz Mansion Bass tabs (ver.1)

Tupac Shakur
Rating:
0/5 (0 votes)

Hard to play? Try these video lessons and learn fast.
                12/27/08

TUPAC - THUGS MANSION

0:46

G---------------|
D-----------3---|
A----3-3--6-----|
E---------------|


reapeat this the rest of the song.

G-------------3------------------5--------|
D--3--3-3-------------3--3-3--------------|
A----------6---6-6--6---------3---3-3--6--|
E-----------------------------------------|
            
Hard to play? Try these video lessons and learn fast. | Correct




comments powered by Disqus
↑ Back to top | Tablatures and chords are parodies/interpretations of the original songs. You may use it for private study, scholarship, research or language learning purposes only