» » »

Tupac Shakur, Only God Can Judge Me Bass tabs (ver.2)

Artists:  A B C D E F G H I J K L M N O P Q R S T U V W X Y Z # 

Only God Can Judge Me Bass tabs (ver.2)

Tupac Shakur Tabs
Rating:
1/5 (1 vote)
Only God Can Judge Me lessons Tabs too difficult? Try these video lessons and learn fast
                ------------------------------------
Only God Can Touch me - Tupac Shakur
====================================


0:00 -> 1:04

----------------------|
----------------------|
--5-2h3--2h3-3-5-6-5--|
-2-2------------------|


1:05 -> 1:25

--------------------------------|
--------------------------------|
-6--5--------6--5---------------|
-------2-----------2--2-5^6-2---|

---------------------------------|
-----------------------------4-4-|
-6--5---------35-6--5------35----|
-------2--22-5---------2-25------|


1:26 -> 2:18

----------------------|
----------------------|
--5-2h3--2h3-3-5-6-5--|
-2-2------------------|


2:19 -> 2:39

--------------------------------|
--------------------------------|
-6--5--------6--5---------------|
-------2-----------2--2-5^6-2---|

---------------------------------|
-----------------------------4-4-|
-6--5---------35-6--5------35----|
-------2--22-5---------2-25------|


2:40 -> 2:50

--------------------------------|
----------NO BASS HERE----------|
--------------------------------|
--------------------------------|


2:51 -> 3:43

----------------------|
----------------------|
--5-2h3--2h3-3-5-6-5--|
-2-2------------------|


3:44 -> 4:14

--------------------------------|
--------------------------------|
-6--5--------6--5---------------|
-------2-----------2--2-5^6-2---|

---------------------------------|
-----------------------------4-4-|
-6--5---------35-6--5------35----|
-------2--22-5---------2-25------|


4:15 -> 4:43

----------------------|
----------------------|
--5-2h3--2h3-3-5-6-5--|
-2-2------------------|


4:44 -> 4:55 (end)
FADE OUT

----------------------|
----------------------|
--5-2h3--2h3-3-5-6-5--|
-2-2------------------|
            
Submit corrections

comments powered by Disqus
↑ Back to top | Tupac Shakur Bass for Only God Can Judge Me. Lyrics for acoustic guitar and electric guitar. Tablatures and chords are parodies/interpretations of the original songs. You may use it for private study, scholarship, research or language learning purposes only