» » »

Tupac Shakur, Gotta Get Mine Bass tabs (ver.1)

Artists:  A B C D E F G H I J K L M N O P Q R S T U V W X Y Z # 

Gotta Get Mine Bass tabs (ver.1)

Tupac Shakur Tabs
 Rating:
4/5 (4 votes)
Gotta Get Mine lessons Tabs too difficult? Try these video lessons and learn fast
1
                Chorus:
first time:
G-------------------|
D------------6--6---|
A--4--7-6--6------4-|
E-------------------|

every other time:
G---------------------|
D--------------6--6---|
A--6-7--7-6--6------4-|
E---------------------|

verse:
G-------------------------|
D------------------6--6---|
A--0h4-6-7--0h7-6-------4-|
E-------------------------|

pretty easy song to play
            
Submit corrections

comments powered by Disqus
↑ Back to top | Tupac Shakur Bass for Gotta Get Mine. Lyrics for acoustic guitar and electric guitar. 1 Tablatures and chords are parodies/interpretations of the original songs. You may use it for private study, scholarship, research or language learning purposes only