» » »

Tupac Shakur, Changes Tabs (ver.4)

Artists:  A B C D E F G H I J K L M N O P Q R S T U V W X Y Z # 

Changes Tabs (ver.4)

Tupac Shakur Tabs
Rating:
0/5 (0 votes)
Changes lessons Tabs too difficult? Try these video lessons and learn fast
                (Intro)
                                      Changes                                        


                                                                         Tupac Shakur
Acoustic



     Am      Em               Asus4 G   C              
     E.  E.  Q.     E   E     E.    E.  Q.     E   E   
E||------------------------|--------------------------|
B||--1---1---0-------------|--------0---1-------------|
G||--2---2---0------2p--0--|--0-----0---0-------------|
D||--2---2---2-------------|--7-----0---2------2p--0--|
A||--0-------2-------------|--5---------3-------------|
E||------------------------|--------------------------|


  Esus4             D           D        D                           
                       |--3--|                                       
  E     S S S S S S E  E  E  E  E     E  E  S S S S S S S S S S S S  
-----------------------------------|-----2------------------------8-|
------------------0-3-----------3--|-----3------------5-8-----5-8---|
--2-----------0-2---2--2--------2--|-----2--------5-7-----5-7-------|
--2---------0-------0-----0--2--0--|--2--0--------------------------|
--2-----0-2---------0-----------0--|--------3-5-7-------------------|
-----------------------------------|--------------------------------|


   S  S S  S  S  Q.      Q    S   
--10-12-8-10-12-10~-------------||
--------------------------------||
--------------------------------||
--------------------------------||
--------------------------------||
--------------------------------||




Duration Legend
---------------
W - whole
H - half
Q - quarter
E - 8th
S - 16th
T - 32nd
X - 64th
. - note dotted
|-n-|  - n-tuplets


Tablature Legend
----------------

h - hammer on
p - pull off
b - bend
~ - vibrato
            
Submit corrections

comments powered by Disqus
↑ Back to top | Tupac Shakur Tabs for Changes. Lyrics for acoustic guitar and electric guitar. Tablatures and chords are parodies/interpretations of the original songs. You may use it for private study, scholarship, research or language learning purposes only