» » »

California Love Bass tabs (ver.1)

Artists:  A B C D E F G H I J K L M N O P Q R S T U V W X Y Z # 

California Love Bass tabs (ver.1)

Tupac Shakur
Rating:
5/5 (2 votes)

Hard to play? Try these video lessons and learn fast.
                California Love is an awesome song with a pretty simple bassline. since its only played
one string you can use drop-D tuning as well. the squiggle after the 3 means to hold the
through the beat of the next measure before striking the 4th fret. listen closely to get 
timing down too.

E = eigth note
E. = dotted eigth note
S = sixteenth note


     H.           E  E     S S E  E.  S E  E  E  E
F||---------------------|---------------------------|
C||---------------------|---------------------------|
G||---------------------|---------------------------|
D||------------------3~-|----4-5------0-5--5-----3~-|


   S S E  E.  S E  E  E  E     S S E  E.  S E  E  E  E
|---------------------------|---------------------------|
|---------------------------|---------------------------|
|---------------------------|---------------------------|
|----4-5------0-5--5-----3~-|----4-5------0-5--5-----3~-|


   S S E  E.  S E  E  E  E     S S E  E.  S E  E  E  E
|---------------------------|---------------------------|
|---------------------------|---------------------------|
|---------------------------|---------------------------|
|----4-5------0-5--5-----3~-|----4-5------0-5--5-----3~-|


   S S E  E.  S E  E  E  E     S S E  E.  S E  E  E  E
|---------------------------|---------------------------|
|---------------------------|---------------------------|
|---------------------------|---------------------------|
|----4-5------0-5--5-----3~-|----4-5------0-5--5-----3~-|

repeat throughout whole song...
            
Hard to play? Try these video lessons and learn fast. | Correct




comments powered by Disqus
↑ Back to top | Tablatures and chords are parodies/interpretations of the original songs. You may use it for private study, scholarship, research or language learning purposes only