» » »

Tupac Shakur, All About U Bass tabs (ver.1)

Artists:  A B C D E F G H I J K L M N O P Q R S T U V W X Y Z # 

All About U Bass tabs (ver.1)

Tupac Shakur Tabs
 Rating:
4/5 (4 votes)
All About U lessons Tabs too difficult? Try these video lessons and learn fast
1
                Tuning			: EADG

This bassline goes on throughout the whole song, with slight variations like 
slides here and there.

G|-------------------------|
D|------------5------5-----|
A|-------2--5------5-------|
E|-3--3----------------3---|

G|-------------------------|
D|------------7--------4---|
A|-------4--7--------4-----|
E|-5--5------------5-------|

Variation (2:46 and somewhere else I'm guessing):

G|-2h4-|
D|-----|
A|-----|
E|-----|
            
Submit corrections

comments powered by Disqus
↑ Back to top | Tupac Shakur Bass for All About U. Lyrics for acoustic guitar and electric guitar. 1 Tablatures and chords are parodies/interpretations of the original songs. You may use it for private study, scholarship, research or language learning purposes only