» » »

Tub Ring, Where's The Robot? Bass tabs (ver.1)

Artists:  A B C D E F G H I J K L M N O P Q R S T U V W X Y Z # 

Where's The Robot? Bass tabs (ver.1)

Tub Ring Tabs
Rating:
0/5 (0 votes)
Where's The Robot? lessons Tabs too difficult? Try these video lessons and learn fast
                Band: Tub Ring
Normal Tuning: GDAE


°°=double digit


G|---------------------5--|
D|-------------88776655---|
A|779910------------------|
E|------8888888-----------|
      °°

0:06
G|--------------------------------|
D|--------------------------------|
A|-------------------7-7-7-77777--|   
E|0023002300230023----------------|


0:10
G|--------------|
D|--------------|
A|555-----------|
E|---666555555--|x2


0:15
G|---------|
D|------3--|
A|--3-5----|
E|3--------|x4


0:19
G|-----------------------------------------|
D|----------------888----------------------|
A|-------555---555-----------555-----------|
E|5-5-5-5---666-------5-5-5-5---666555444--|x2


0:30
G|---------|
D|---------|
A|------3--|
E|3-5-6----|x4


Repeat the hole thing twice 

and end with a
G|-------|
D|-------|
A|-------|
E|0/8\0--|
            

comments powered by Disqus
↑ Back to top | Tub Ring Bass for Where's The Robot?. Lyrics for acoustic guitar and electric guitar. Tablatures and chords are parodies/interpretations of the original songs. You may use it for private study, scholarship, research or language learning purposes only