» » »

Tub Ring, Future Was Free Tabs (ver.1)

Artists:  A B C D E F G H I J K L M N O P Q R S T U V W X Y Z # 

Future Was Free Tabs (ver.1)

Tub Ring Tabs
 Rating:
4/5 (5 votes)
Future Was Free lessons Tabs too difficult? Try these video lessons and learn fast
1
                Band : Tub Ring
Song : Future Was Free
Album : Fermi Paradox
Underground Inc / Invisible Records: UIN 1057
also released in Japan on Bad News Records Bacy-33
2002

Interpretation by John Martinovich

Tuning : Drop D ( D A D G B E ) but can easily be done for Standard.

Intro / Verse

E--------------------------------------------------------|
B--------------------------------------------------------|
G---9-----8-----4------99-88--5-----4-----2--------------|
D---7-x8--8-x8--4-x12--99-88--5-x8--4-x8--2-x16----------|  x2
A---7-----6-----2------77-66--3-----2-----0--------------|
D--------------------------------------------------------|

(PLAY THIS PART ONLY AFTER THE FIRST TWO TIMES OF THE INTRO)

E--------------------------------------------------------|
B--------------------------------------------------------|
G---2--------2---2---2---2---2/0-------------------------|
D---2-x16---2---2---2---2---2/-0-------------------------|
A---0------0---0---0---0---0---0-------------------------|
D--------------------------------------------------------|

Prechorus

E--------------------------------------------------------|
B--------------------------------------------------------|
G---------6-----224-224-224-5-6--------------------------|
D---3-----6-x8--224-224-224-5-6--------------------------|
A---3-x8--4-----002-002-002-3-4--------------------------|
D---3----------------------------------------------------|

E--------------------------------------------------------|
B--------------------------------------------------------|
G---------6-----2-2///7///2------------------------------|
D---3-----6-x8--2-2///7///2------------------------------|
A---3-x8--4-----0----------------------------------------|
D---3----------------------------------------------------|

E--------------------------------------------------------|
B--------------------------------------------------------|
G---------6-----2--4--2--4-------------------------------|
D---3-----6-x8--2--4--2--4-------------------------------|
A---3-x8--4-----0--2--0--2-------------------------------|
D---3----------------------------------------------------|

E--------------------------------------------------------|
B--------------------------------------------------------|
G---------6-----2-2///7///2------------------------------|
D---3-----6-x8--2-2///7///2------------------------------|
A---3-x8--4-----0----------------------------------------|
D---3----------------------------------------------------|

Chorus

E---------------------|
B---------------------|
G---9-----8-----9-----|
D---9-x4--8-x4--9-x8--|  x4  (Palm mute the third time)
A---7-----6-----7-----|
D---------------------|

E---------------------|
B---------------------|
G---77-88-99-99-------|
D---77-88-99-99-------|  x1
A---55-66-77-77-------|
D---------------------|

Bridge

E---------------------|
B---------------------|
G---77--77--77--------|
D---77--77--77--------|  x1
A---55--55--55--------|
D---------------------|


E-----------------------|
B-----------------------|
G---77--88--99--77--77--|
D---77--88--99--77--77--|  x2.5
A---55--66--77--55--55--|
D-----------------------|

Final Verse

E---------------------|----------------------------------|
B---------------------|----------------------------------|
G---9-----8-----4-----|-99-88--5-----4-----2-------------|
D---7-x8--8-x8--4-x12-|-99-88--5-x8--4-x8--2-x16---------|  x1
A---7-----6-----2-----|-77-66--3-----2-----0-------------|
D---------------------|----------------------------------|
  ^ Harmonics only! ^

E--------------------------------------------------------|
B--------------------------------------------------------|
G---9-----8-----4------99-88--5-----4-----2--------------|
D---7-x8--8-x8--4-x12--99-88--5-x8--4-x8--2-x16----------|  x2
A---7-----6-----2------77-66--3-----2-----0--------------|
D--------------------------------------------------------|

E--------------------------------------------------------|
B--------------------------------------------------------|
G---2--------2---2---2---2---2/9/0-----------------------|
D---2-x16---2---2---2---2---2/-9/0-----------------------|  x1
A---0------0---0---0---0---0---7/0-----------------------|
D--------------------------------------------------------|

SONG ORDER

Intro
Verse
Prechorus
Chorus
Verse
Prechorus
Chorus
Bridge
Final Verse

**I've listened to this song for the longest time, and finally, I'm passing down my work 
            
Submit corrections

comments powered by Disqus
↑ Back to top | Tub Ring Tabs for Future Was Free. Lyrics for acoustic guitar and electric guitar. 1 Tablatures and chords are parodies/interpretations of the original songs. You may use it for private study, scholarship, research or language learning purposes only