» » »

Tub Ring, Faster Bass tabs (ver.1)

Artists:  A B C D E F G H I J K L M N O P Q R S T U V W X Y Z # 

Faster Bass tabs (ver.1)

Tub Ring Tabs
 Rating:
4.3/5 (6 votes)
Faster lessons Tabs too difficult? Try these video lessons and learn fast
                0:00
G	|55554444334455667766778899887766|
D	|------------------------------------------------|
A	|------------------------------------------------|
E	|------------------------------------------------|  x6

0:33
G    |--------------------------------------------|
D    |--------------------------------------------|
A    |--------------------------------------------|
E    |5-5-5-4-4-4-3-4-5-6-5-6-7-8-7-6-5-----------| x5

0:53
G    |-----------------------------------------|
D    |-----------------------------------------|
A    |-----------------------------------------|
E    |5-5-5-4-4-4-2-2-3-3-4-4-5-5-6-6| x 8-----|

1:11
G    |--------------------|
D    |--------------------|
A    |--------------------|
E    |5-5-5-4-4-4-3 | x 2-|

1:22
G    |-----------------------------------------|
D    |-----------------------------------------|
A    |-----------------------------------------|
E    |5-5-5-4-4-4-2-2-3-3-4-4-5-5-6-6----------| x5

1:33
G    |------------------------|
D    |------------------------|
A    |------------------------|
E    |5-5-5-4-4-4-3-3-3-------| x8

1:52
G    |-----------------------------------------|
D    |-----------------------------------------|
A    |-----------------------------------------|
E    |5-5-5-4-4-4-2-2-3-3-4-4-5-5-6-6----------| x4

2:00
G    |-------------------------|
D    |-------------------------|
A    |-------------------------|
E    |-5-5-5-4-4-4-3-3-3-------| x2

2:13
G    |-----------------------------------------|
D    |-----------------------------------------|
A    |-----------------------------------------|
E    |5-5-5-4-4-4-2-2-3-3-4-4-5-5-6-6----------| x5

2:23
G    |------------------------|
D    |------------------------|
A    |------------------------|
E    |5-5-5-4-4-4-3-3-3-------| x8

2:49
G    |---------------------------------------|
D    |---------------------------------------|
A    |---------------------------------------|
E    |-5-5-5-5-4-4-4-4-3-3-4-4-5-5-6---------|

G    |----------------------------------------|
D    |----------------------------------------|
A    |----------------------------------------|
E    |-6-7-7-6-6-8-8-9-9-8-8-7-7-6-6----------| x6

3:13
G    |------------------------|
D    |------------------------|
A    |------------------------|
E    |5-5-5-4-4-4-3-3-3-------| x8
            
Submit corrections

comments powered by Disqus
↑ Back to top | Tub Ring Bass for Faster. Lyrics for acoustic guitar and electric guitar. Tablatures and chords are parodies/interpretations of the original songs. You may use it for private study, scholarship, research or language learning purposes only