» » »

Tub Ring, Bite The Wax Tadpole Bass tabs (ver.1)

Artists:  A B C D E F G H I J K L M N O P Q R S T U V W X Y Z # 

Bite The Wax Tadpole Bass tabs (ver.1)

Tub Ring Tabs
Rating:
0/5 (0 votes)
Bite The Wax Tadpole lessons Tabs too difficult? Try these video lessons and learn fast
                Band: Tub Ring
Normal Tuning: GDAE


°°=double digit

0:07
G|------1-------1--0--------------3/8--|
D|----1-------1------1-----------------|
A|3-------3-----------2---3---3333-----|
E|----------------------4--------------|x2


0:38
G|-------------------------------------|
D|-------------------------------------|
A|333-3020-333-3020-333-3020-333-3/15--|   
E|-------------------------------------|x2
                                   °°

0:50
G|---------------35-5-5553------3------|
D|-------35-5-555---------5-5-35-5(3)--|
A|3-3-333------------------------------|
E|-------------------------------------|x2 [second time dont do the ( ) ]


1:02
G|-------------------------------------|
D|-------------------------------------|
A|333-3020-333-3020-333-3020-333-3/15--|   
E|-------------------------------------|x2
                                   °°

1:14
G|---------------35-5-5553------3------|
D|-------35-5-555---------5-5-35-5(3)--|
A|3-3-333------------------------------|
E|-------------------------------------|x2 [second time dont do the ( ) ]

-------------------------------------------------------------------------------------------

1:26
G|------------------------------------|
D|-------454--------------------------|
A|3-3-66----65-3-3-66-3-----3-3-66-3--|
E|------------------------------------|


1:34
G|-------------------------------------------|
D|-1-1-1-----1-1-1-----1-1-1-----1-1-1-------|
A|3-3-3-30123-3-3-30123-3-3-30123-3-3-30123--|
E|-------------------------------------------|


EVERYTHING ABOVE THE LINE IS NOW REPEATED EXACTLY (exept part of the riff a 1:14
that has a little shnissel to it at about 3:02, and end of first riff slide to 6 instead
 first time around)
like this
G|5553--3h5---3--|<--pretty fast
D|----5----3h5---|
A|---------------|
E|---------------|


3:09
G|-----------------------------------|
D|-------454-----34-54---------------|
A|3-3-66----65-36--6--3----3-3-66-3--|
E|-----------------------------------|


3:40                                  can be replace by 55--v   
G|-------4----------4----------4----------4------------------8--|
D|------4-4--------4-4--------4-4--------4-4----------------5---|
A|3-33-2---2-3-33-2---2-3-33-2---2-3-33-2---2-/666-555-666-5----|
E|--------------------------------------------------------------|

|-------4----------4----------------------4----------4----------4----------4----|
|------4-4--------4-4--------------------4-4--------4-4--------4-4--------4-4---|
|3-33-2---2-3-33-2---2-------------3-33-2---2-3-33-2---2-3-33-2---2-3-33-2---2--|
|----------------------3--5--6--7-----------------------------------------------|

|---------------8---------4----------4------------------|
|--------------5---------4-4--------4-4-----------------|
|/666-555-666-5----3-33-2---2-3-33-2---2----------------|
|----------------------------------------3--5--6--7--8--|


4:38
G|------1-------1--0--------------3/8--|
D|----1-------1------1-----------------|
A|3-------3-----------2---3---3333-----|
E|----------------------4--------------|x2
            
Submit corrections

comments powered by Disqus
↑ Back to top | Tub Ring Bass for Bite The Wax Tadpole. Lyrics for acoustic guitar and electric guitar. Tablatures and chords are parodies/interpretations of the original songs. You may use it for private study, scholarship, research or language learning purposes only