» » »

Simple Truth Tabs (ver.1)

Artists:  A B C D E F G H I J K L M N O P Q R S T U V W X Y Z # 

Simple Truth Tabs (ver.1)

Tsunami Bomb
Rating:
0/5 (0 votes)

Hard to play? Try these video lessons and learn fast.
                Album:The Ultimate Escape


I couldn't find this anywhere else on the net so i tab it out by scratch with my 
and guitar.It sounds pretty right.

Intro:
E|----------------------------------------|
B|----------------------------------------|
G|--5—-5-7--7-9--9-10-9-x----------9-9-9--|
D|--x—-x-x--x-x--x-x--x-x--33-3-3--x-x-x--|
A|--3—-3-5--5-7--7-8--7-x--33-3-3--7-7-7--|
E|-------------------------11-1-1---------|

e|-----------------------------|
B|-----------------------------|
G|----------9-9-9--------------|
D|--55-5-5--x-x-x--3---3---3~--|
A|--55-5-5--7-7-7--3---3---3~--|
E|--33-3-3---------1-x-1-x-1~--|

Verse Riff: (palm muted)
e|-----------------------------|--------------------------|
B|-----------------------------|-6---6-5---5---5--------5-|
G|-555555----------------------|---5---------5-----5------|
D|-555555--333333--55555-333333|-----------------7--------|x4
A|-333333--333333--55555-333333|----------------------3---|
E|---------111111--33333-111111|--------------------------|

e|--------------------------------------------------------|
B|-----5---6p5-------5---6p5-------5-—-6p5-------5---8-6-5|
G|-5-5---5----5--5-5---5----5--5-5---5----5--5-5---5------|
D|--------------------------------------------------------|x2
A|--------------------------------------------------------|
E|--------------------------------------------------------|

e|------------------------------------------------------|
B|-----5---6p5-------5---6p5-------5-—-6p5—-6p5---8-6-5-|
G|-5-5---5----5--5-5---5----5--5-5---5----5-----5-------|
D|------------------------------------------------------|
A|------------------------------------------------------|
E|------------------------------------------------------|

Chorus Riff:
e|----------------------------------------|-----------|
B|----------------------------------------|-----------|
G|-5-5------------------------------------|-----------|
D|-5-5--5-5--7-7--5-5--3-3--3-3--5-5--5-5-|-3---3---3-|x4 end on
A|-3-3--5-5--7-7--5-5--3-3--3-3--5-5--5-5-|-3---3---3-|F5 <
E|------3-3--5-5--3-3--1-1--1-1--3-3--3-3-|-1-x-1-x-1-|

e|---------------------------------|
B|---------------------------------|
G|--------------------------55-55--|
D|-3333333--3333333—-77-77—-55-55--|x2
A|-3333333--3333333—-77-77—-33-33--|
E|-1111111--1111111—-55-55---------|

e|--------------------------------------------------------|
B|--------------------------------------------------------|
G|-------------------------------------------------55-55--|
D|-3333333-------------3333333—-------------77-77—-55-55--|x2
A|-3333333-3p2p0-------3333333—3p2p0--------77-77—-33-33--|
E|-1111111-------3p1p0-1111111—------3p1p0--55-55---------|

e|-----------------------|
B|-----5----5----5----5--|
G|--5--------------5-----|
D|---—-—-3----5----------|
A|---—-—-----------------|
E|---—-------------------|

e|-------------------------------|
B|-------------------------------|
G|--555555-----------------------|
D|--555555--333333--55555-333333-|
A|--333333--333333--55555-333333-|
E|----------111111--33333-111111-|
            
Hard to play? Try these video lessons and learn fast. | Correct




comments powered by Disqus
↑ Back to top | Tablatures and chords are parodies/interpretations of the original songs. You may use it for private study, scholarship, research or language learning purposes only