» » »

Tsunami Bomb, Swimming Through Molasses Tabs (ver.1)

Artists:  A B C D E F G H I J K L M N O P Q R S T U V W X Y Z # 

Swimming Through Molasses Tabs (ver.1)

Tsunami Bomb Tabs
Rating:
0/5 (0 votes)
Swimming Through Molasses lessons Tabs too difficult? Try these video lessons and learn fast
                Tsunami Bomb


: muted sound

Intro/Chorus
part un
e------------------------------------------------
B------------------------------------------------
G------------------------------------------------
D-2-:-5/2-5-:-5/2-5-:-5/2-5-5p0------------------
A-3-:-----6-:-----5-:-----3----------------------
E------------------------------------------------
part dos
e------------------------------------------------
B------------------------------------------------
G-2-------5-------7-------8-9--------------------
D-2-------5-------7-------8-9--------------------
A-0-------3-------5-------6-7--------------------
E------------------------------------------------
part un again
part three
e------------------------------------------------
B------------------------------------------------
G-2-------5-------7------------------------------
D-2-------5-------7-------7-5-4-5-4--------------
A-0-------3-------5-----------------5-7/1--------
E------------------------------------------------

Verses
e------------------------------------------------
B------------------------------------------------
G------------------------------------------------
D------------------------------2-1-5-4-----------
A-7:7/6:6/5:5/0:0/3:3/2:2/3:2/3------------------
E------------------------------------------------
Verse Part 2
e------------------------------------------------
B------------------------------------------------
G------------------------------------------------
D------------------------------------------------
A-7:7/9:9/10:10/12:12/10-8/7-7/8-9-7-6-4-5-------
E------------------10/8--8/7-7/8-7-----2-3-------

Pre-Chorus
e---------------------------------
B---------------------------------
G-5-5-4-4/5-----------------------
D-5---------5---------------------
A-3---------5---------------------
E-----------3--------------------- x3

e--------------------------------
B--------------------------------
G-5-5-4-4/5-8--7--9--------------
D-5---------8--7--9--------------
A-3---------6--5--7--------------
E--------------------------------

Solo Thingy
e------------------------------------------------
B--8-7-----------8-10-8-7h8h7-----7-8-7-8/1------
G-9---9-8-9-9~--9-------------9-7----------------
D------------------------------------------------
A------------------------------------------------
E------------------------------------------------

e-----------------------------------------------------
B--8-7-----------8-10-8-7h8h7-----7-8-10-8-7-8-7------
G-9---9-8-9-9~--9-------------9-7----------------9/1--
D-----------------------------------------------------
A-----------------------------------------------------
E-----------------------------------------------------

Chorus
And so ON

Outro
e------------------------------------------------
B------------------------------------------------
G-9-10-9-2-5-4-5-7-------------------------------
D-9-10-9-2-5-4-5-7-------------------------------
A-7-8--7-0-3-2-3-5-------------------------------
E------------------------------------------------
fade out
while keyboard plays the end

Thats ittttt
there ya go fil have fun
            
Submit corrections

comments powered by Disqus
↑ Back to top | Tsunami Bomb Tabs for Swimming Through Molasses. Lyrics for acoustic guitar and electric guitar. Tablatures and chords are parodies/interpretations of the original songs. You may use it for private study, scholarship, research or language learning purposes only