» » »

Tsunami Bomb, Russian Roulette Bass tabs (ver.2)

Artists:  A B C D E F G H I J K L M N O P Q R S T U V W X Y Z # 

Russian Roulette Bass tabs (ver.2)

Tsunami Bomb Tabs
 Rating:
4/5 (4 votes)
Russian Roulette lessons Tabs too difficult? Try these video lessons and learn fast
1
                -------------------------------------------------------------------------------
                             Russian Roulette - Tsunami Bomb
-------------------------------------------------------------------------------


Tuning: Standard

This TAB is much more accurate. (F minor not C minor as is the other TAB)

Intro:
                                            x3                                           
          x1
G|-----------------------------------|--------------------------------------------|
D|-----------------------------------|--------------------------------------------|
A|---------3-3-----------1---------|---------3-3------------1---------------------|
E|--1-1--------4-4--3------------|--1-1---------4-4--3-----------1~---------------|

Verse

                                            x8
G|-------------------------------------|
D|-------------------------------------|
A|---------3-3-----------1-------------|
E|--1-1--------4-4--3------------------|

Chorus:

                                            x3                                           
          x1
G|-----------------------------------|--------------------------------------------|
D|-----------------------------------|--------------------------------------------|
A|---------3-3-----------1---------|---------3-3------------1---------------------|
E|--1-1--------4-4--3------------|--1-1---------4-4--3-----------1~---------------|

Verse:
Chorus:

interlude (after chorus)


G|---------------------------------------------------------------------|
D|---------------------------------------------------------------------|
A|--1-1-1-1----4-4-4-4-------------------------------------------------|
E|------------------------------111-0-111111-431-----------------------|

G|---------------------------------------------------------------------|
D|---------------------------------------------------------------------|
A|--1-1-1-1----4-4-4-4-------------------------------------------------|
E|------------------------------1111111111111111-----------------------|

G|---------------------------------------------------------------------|
D|---------------------------------------------------------------------|
A|--1-1-1-1----4-4-4-4-------------------------------------------------|
E|------------------------------111-0-111111-431-----------------------|

G|---------------------------------------------|
D|---------------------------------------------|
A|--1-1-1-1----4-4-4-4----3~~------------------|
E|---------------------------------------------|

Bridge:

G|-------------------------------------------------------|----------------------------|
D|-------------------------------------------------------|----------------------------|
A|-------------------------------------------------------|----------3-----------------|
E|--1~~~~--------1-1--------1-1--------1-1-------|--1-1-------4---3-------------------|

Chorus: x2
Verse: x1
Chorus: x 2

Outro:

G|--------------------|
D|--------------------|
A|--------------------|
E|--1~~~~-------------|
            
Submit corrections

comments powered by Disqus
↑ Back to top | Tsunami Bomb Bass for Russian Roulette. Lyrics for acoustic guitar and electric guitar. 1 Tablatures and chords are parodies/interpretations of the original songs. You may use it for private study, scholarship, research or language learning purposes only