» » »

Planet Schmanet Janet Bass tabs (ver.1)

Artists:  A B C D E F G H I J K L M N O P Q R S T U V W X Y Z # 

Planet Schmanet Janet Bass tabs (ver.1)

Tsunami Bomb
Rating:
0/5 (0 votes)

Hard to play? Try these video lessons and learn fast.
                Except for the main riff, I'm not sure
that any of it is correct. But play along
with the song and it sounds pretty good.
For the end part it's pretty important that
you listen to the song first, to get the rythem.

Intro
G----------|
D----------|
A---3------|
E-4---3-2~-|

Main Riff X 7
G-------|-------------------------|
D-------|-------------------------|
A-0-2-4-|-5-555-2-222-5-555-2-222-|
E-------|-------------------------|

Chorus
G-------------------------------|
D-------------------------------|
A-------------------------------|
E-5-5-55-55-7-7-77-77-3-3-33-33-|

G------------------------------|
D------------------------------|
A-----------5-5-55-55-7-7-7-77-|
E-5-5-55-55--------------------|

Main Riff X 2
G-------------------------|
D-------------------------|
A-5-555-2-222-5-555-2-222-|
E-------------------------|

Bridge
G-------------------------------|
D-------------------------------|
A-------------------------------|
E-5-5-55-55-7-7-77-77-3-3-33-33-|

G-------------------------------|
D-------------------------------| X 5
A-------------------------------|
E-3-33-3-33-33-0-3-33-3-33-33-0-|

G--------------------------|
D--------------------------|
A--------------------------|
E-55-55-55-77-77-77-3333-3-|

G-------------------------      |---------|
D------------------------- X 10 |---------|
A-5-555-2-222-5-555-2-222-      |---4-----|
E-------------------------      |-5---3-0-|

Main Riff
G-------------------------     |----|
D------------------------- X 3 |----|
A-5-555-2-222-5-555-2-222-     |-0~-|
E-------------------------     |----|

End Part
G-----------------------------------------|
D-----------------------------------------|
A-----------------------------------------|
E-5-55-55-5-55-5-5-55-7-77-77-7-77-7-7-77-|

G---------------------------------|
D---------------------------------|
A---------------------------------|
E-3-33-33-3-33-3-5-55-55-5-55-5-5-|

G-----------------------------------     |-----|
D----------------------------------- X 2 |-----|
A-5-55-55-5-55-5-5-7-77-77-7-77-7-7-     |-----|
E-----------------------------------     |-0-5-|
            
Hard to play? Try these video lessons and learn fast. | Correct




comments powered by Disqus
↑ Back to top | Tablatures and chords are parodies/interpretations of the original songs. You may use it for private study, scholarship, research or language learning purposes only