» » »

Tsunami Bomb, Obligation Bass tabs (ver.1)

Artists:  A B C D E F G H I J K L M N O P Q R S T U V W X Y Z # 

Obligation Bass tabs (ver.1)

Tsunami Bomb Tabs
Rating:
0/5 (0 votes)
Obligation lessons Tabs too difficult? Try these video lessons and learn fast
                Intro
----------------------------|---------------
------------3333-22-0-------|---------------
--3333-----------------3----|---------------
-------3333-----------------|-33333333------

Verse
--------------------------------------------		X2
--------------------------------------------
-33333333-----------------------------------
----------33333333-55555555-33333333--------

Pre-Chorus 
--------------------------------------------		X2
--------------------------------------------
--33----------------------------------------
-----33-55-(00)-33--------------------------	(00) Only when played second time around.

Verse X 2

Chorus		X 3
-----------------------|---------------------
-----55--3333-22-0-----|----3*---------------
--33---------------3---|---------(3)---------	(3) Played the very last time. Ends song.
-----------------------|-3*------------------

Bridge
--------------------------------------------
--------------------------------------------
--2h3-33-2h3-33-2h3-33--3333----------------
--------------------------------------------

Intro 
Verse X 2
Pre-Chorus X 2
Verse X 2
Chorus
Bridge
Verse X 2
Pre-Chorus X 2
Verse X 2
Chorus
Bridge
Pre-Chorus X 2
Verse X4
Pre-Chorus 
Chorus
            
Submit corrections

comments powered by Disqus
↑ Back to top | Tsunami Bomb Bass for Obligation. Lyrics for acoustic guitar and electric guitar. Tablatures and chords are parodies/interpretations of the original songs. You may use it for private study, scholarship, research or language learning purposes only