» » »

No One's Looking Bass tabs (ver.1)

Artists:  A B C D E F G H I J K L M N O P Q R S T U V W X Y Z # 

No One's Looking Bass tabs (ver.1)

Tsunami Bomb
Rating:
0/5 (0 votes)

Hard to play? Try these video lessons and learn fast.
                
> means repeat numerous times
~ means let it ring

INTRO 1
G|---------------------------------------------------------
D|---------------------------------------------------------  x3
A|-------3>-1>---------------------------------------------
E|-1>-4>---------------------------------------------------

INTRO 2
G|---------------------------------------------------------
D|---------------------------------------------------------
A|-4>-6-4-3-1----------------------------------------------
E|------------4--------------------------------------------

VERSE
G|---------------------------------------------------------
D|---------------------------------------------------------  x2
A|----8-8-6-6-4>-------------------------------------------
E|-4>------------------------------------------------------

PRE-CHORUS

G|---------------------------------------------------------
D|---------------------------------------------------------
A|-4>------------------------------------------------------
E|---------------------------------------------------------

G|---------------------------------------------------------
D|-6-6-6-6-6-6-6-6-----------------------------------------
A|-----------------5-5-5-5-5-5-5-5-------------------------
E|---------------------------------------------------------

CHORUS
G|---------------------------------------------------------
D|-3-3-3-3-------------------------------------------------  x4
A|---------4-4-4-4---------6-6-6-6-------------------------
E|-----------------4-4-4-4---------------------------------

INTRO 1 x3
INTRO 2

VERSE x2

PRE-CHORUS
CHORUS x4

BRIDGE
G|---------------------------------------------------------
D|---------------------------------------------------------
A|---------4-4-4-4---------6-6-6-6-------------------------
E|-2-2-2-2---------4-4-4-4---------------------------------

G|---------------------6-8-6-5-6-5-------------------------
D|-------------4-6-6-8-------------------------------------
A|-----2-4-4-6---------------------------------------------
E|-2-4-----------------------------------------------------

G|---------------------------------------------------------
D|---------------------------------------------------------
A|---------4-4-4-4---------6-6-6-6-------------------------
E|-2-2-2-2---------4-4-4-4---------------------------------

G|---------------------------------------------------------
D|-------------4-6-----------------------------------------
A|-----2-4-4-6-----3>--------------------------------------
E|-2-4-----------------------------------------------------

CHORUS x8

ENDING
G|---------------------------------------------------------
D|---------------------------------------------------------
A|-8~------------------------------------------------------
E|---------------------------------------------------------
            
Hard to play? Try these video lessons and learn fast. | Correct




comments powered by Disqus
↑ Back to top | Tablatures and chords are parodies/interpretations of the original songs. You may use it for private study, scholarship, research or language learning purposes only