» » »

Tsunami Bomb, No One's Looking Tabs (ver.1)

Artists:  A B C D E F G H I J K L M N O P Q R S T U V W X Y Z # 

No One's Looking Tabs (ver.1)

Tsunami Bomb Tabs
Rating:
0/5 (0 votes)
Hard to play? Try these video lessons and learn fast.
                Artist / band: Tsunami Bomb
Track number: 02
Track name: No One's Looking

This is a killer song by Tsunami Bomb. It's most probably one of my Favorites from
"The Invasion From Within" album. Please email your comments and any corrections, or
and I'll try my best to tab it and email it to you as soon as possible.

Legend:

p - Pull off
x - Mute
* - Let ring
\ - Slide down neck
/ - Slide up neck
pm - Palm muted

Standard tuning (E,A,D,G,B,e)

Intro:

E |--------------------------------------------------------------|
B |--------------------------------------------------------------|
G |-10-10-10-10-10-10-10-8-8-8-8-8-8-8-8-8-8-8-8-8---------------|
D |-10-10-10-10-10-10-10-8-8-8-8-8-8-8-8-8-8-8-8-8-8-8-8-8-8-8-8-|
A |--8--8--8--8--8--8--8-6-6-6-6-6-6-6-6-6-6-6-6-6-8-8-8-8-8-8-8-|
E |------------------------------------------------6-6-6-6-6-6-6-|
      |-------pm--------| |----pm-----| |---pm----| |-----pm----|

E |--------------------------------------------------------------|
B |--------------------------------------------------------------|
G |-10-10-10-10-10-10-10-8-8-8-8-8-8-8-8-8-8-8-8-8---------------|
D |-10-10-10-10-10-10-10-8-8-8-8-8-8-8-8-8-8-8-8-8-8-8-8-8-8-8-8-|
A |--8--8--8--8--8--8--8-6-6-6-6-6-6-6-6-6-6-6-6-6-8-8-8-8-8-8-8-|
E |------------------------------------------------6-6-6-6-6-6-6-|
      |-------pm--------| |----pm-----| |---pm----| |-----pm----|

E |--------------------------------------------------------------|
B |--------------------------------------------------------------|
G |-10-10-10-10-10-10-10-8-8-8-8-8-8-8-8-8-8-8-8-8---------------|
D |-10-10-10-10-10-10-10-8-8-8-8-8-8-8-8-8-8-8-8-8-8-8-8-8-8-8-8-|
A |--8--8--8--8--8--8--8-6-6-6-6-6-6-6-6-6-6-6-6-6-8-8-8-8-8-8-8-|
E |------------------------------------------------6-6-6-6-6-6-6-|
      |-------pm--------| |----pm-----| |---pm----| |-----pm----|

E |-------------------------------------|
B |-------------------------------------|
G |-------------------------------------|
D |-11-11-11-11-11-11-11-11-11-11-11-11-|
A |-11-11-11-11-11-11-11-11-11-11-11-11-|
E |--9--9--9--9--9--9--9--9--9--9--9--9-|
   |----------------pm-----------------|

E |-------------------------------------|
B |-------------------------------------|
G |-------------------------------------|
D |-13-13-13-13-13-13-13-13-13-13-13-13-|
A |-13-13-13-13-13-13-13-13-13-13-13-13-|
E |-11-11-11-11-11-11-11-11-11-11-11-11-|
   |----------------pm-----------------|

E |------------------------------------|
B |------------------------------------|
G |-13-13-13-13-13-13-13-13-13-13-13-\-|
D |--x--x--x--x--x--x--x--x--x--x--x-\-|
A |-11-11-11-11-11-11-11-11-11-11-11-\-|
E |------------------------------------|

Verse:

E |--------------------------------------|
B |--------------------------------------|
G |---10-10-\-8-8-8-\-6-6-6-6-6-6-/-8----|
D |-6-10-10-\-8-8-8-\-6-6-6-6-6-6-/-8-6p-|
A |-6--8--8-\-6-6-6-\-4-4-4-4-4-4-/-6-6p-|
E |-4---------------------------------4p-|

E |-----------------------------------------------|
B |-----------------------------------------------|
G |---10-10-\-8-8-8-\-6-6-6-6-6-6-/-8-------------|
D |-6-10-10-\-8-8-8-\-6-6-6-6-6-6-/-8-6-6-6-6-6-6-|
A |-6--8--8-\-6-6-6-\-4-4-4-4-4-4-/-6-6-6-6-6-6-6-|
E |-4---------------------------------4-4-4-4-4-4-|

Bridge:

E |------------------------------------------|
B |------------------------------------------|
G |-10-10-10-10-10-8-8-8-8-8-8-6-6-6-6-6-6-6-|
D |-10-10-10-10-10-8-8-8-8-8-8-6-6-6-6-6-6-6-|
A |--8--8--8--8--8-6-6-6-6-6-6-4-4-4-4-4-4-4-|
E |------------------------------------------|
                                  |---pm----|

E |------------------------------------|
B |------------------------------------|
G |-13-13-13-13-13-13-13-13-13-13-13-\-|
D |--x--x--x--x--x--x--x--x--x--x--x-\-|
A |-11-11-11-11-11-11-11-11-11-11-11-\-|
E |------------------------------------|

E |-----------------------------------------|
B |-8-8-8-8-8-8-8-8-8-8-8-8-8-8-8-8-8-8-8-8-|
G |-6-6-6-6-6-6-6-6-6-\-5-5-5-5-5-5-5-5-5-5-|
D |-----------------------------------------|
A |-----------------------------------------|
E |-----------------------------------------|

Chorus:

E |----------------------------------------------------------|
B |----------------------------------------------------------|
G |-10-10-10-10-10-10--6-6-6-6-6-6---------------8-8-8-8-8-8-|
D |-10-10-10-10-10-10--6-6-6-6-6-6--6-6-6-6-6-6--8-8-8-8-8-8-|
A |--8--8--8--8--8--8--4-4-4-4-4-4--6-6-6-6-6-6--6-6-6-6-6-6-|
E |---------------------------------4-4-4-4-4-4--------------|

E |----------------------------------------------------------|
B |----------------------------------------------------------|
G |-10-10-10-10-10-10--6-6-6-6-6-6---------------8-8-8-8-8-8-|
D |-10-10-10-10-10-10--6-6-6-6-6-6--6-6-6-6-6-6--8-8-8-8-8-8-|
A |--8--8--8--8--8--8--4-4-4-4-4-4--6-6-6-6-6-6--6-6-6-6-6-6-|
E |---------------------------------4-4-4-4-4-4--------------|

E |----------------------------------------------------------|
B |----------------------------------------------------------|
G |-10-10-10-10-10-10--6-6-6-6-6-6---------------8-8-8-8-8-8-|
D |-10-10-10-10-10-10--6-6-6-6-6-6--6-6-6-6-6-6--8-8-8-8-8-8-|
A |--8--8--8--8--8--8--4-4-4-4-4-4--6-6-6-6-6-6--6-6-6-6-6-6-|
E |---------------------------------4-4-4-4-4-4--------------|

E |----------------------------------------------------------|
B |----------------------------------------------------------|
G |-10-10-10-10-10-10--6-6-6-6-6-6---------------8-8-8-8-8-8-|
D |-10-10-10-10-10-10--6-6-6-6-6-6--6-6-6-6-6-6--8-8-8-8-8-8-|
A |--8--8--8--8--8--8--4-4-4-4-4-4--6-6-6-6-6-6--6-6-6-6-6-6-|
E |---------------------------------4-4-4-4-4-4--------------|

End Chorus:

E |--------------------------------------------------------------|
B |--------------------------------------------------------------|
G |-10-10-10-10-10-10-10-8-8-8-8-8-8-8-8-8-8-8-8-8---------------|
D |-10-10-10-10-10-10-10-8-8-8-8-8-8-8-8-8-8-8-8-8-8-8-8-8-8-8-8-|
A |--8--8--8--8--8--8--8-6-6-6-6-6-6-6-6-6-6-6-6-6-8-8-8-8-8-8-8-|
E |------------------------------------------------6-6-6-6-6-6-6-|
      |-------pm--------| |----pm-----| |---pm----| |-----pm----|

E |--------------------------------------------------------------|
B |--------------------------------------------------------------|
G |-10-10-10-10-10-10-10-8-8-8-8-8-8-8-8-8-8-8-8-8---------------|
D |-10-10-10-10-10-10-10-8-8-8-8-8-8-8-8-8-8-8-8-8-8-8-8-8-8-8-8-|
A |--8--8--8--8--8--8--8-6-6-6-6-6-6-6-6-6-6-6-6-6-8-8-8-8-8-8-8-|
E |------------------------------------------------6-6-6-6-6-6-6-|
      |-------pm--------| |----pm-----| |---pm----| |-----pm----|

E |--------------------------------------------------------------|
B |--------------------------------------------------------------|
G |-10-10-10-10-10-10-10-8-8-8-8-8-8-8-8-8-8-8-8-8---------------|
D |-10-10-10-10-10-10-10-8-8-8-8-8-8-8-8-8-8-8-8-8-8-8-8-8-8-8-8-|
A |--8--8--8--8--8--8--8-6-6-6-6-6-6-6-6-6-6-6-6-6-8-8-8-8-8-8-8-|
E |------------------------------------------------6-6-6-6-6-6-6-|
      |-------pm--------| |----pm-----| |---pm----| |-----pm----|

E |-------------------------------------|
B |-------------------------------------|
G |-------------------------------------|
D |-11-11-11-11-11-11-11-11-11-11-11-11-|
A |-11-11-11-11-11-11-11-11-11-11-11-11-|
E |--9--9--9--9--9--9--9--9--9--9--9--9-|
   |----------------pm-----------------|

E |-------------------------------------|
B |-------------------------------------|
G |-------------------------------------|
D |-13-13-13-13-13-13-13-13-13-13-13-13-|
A |-13-13-13-13-13-13-13-13-13-13-13-13-|
E |-11-11-11-11-11-11-11-11-11-11-11-11-|
   |----------------pm-----------------|

Verse:

E |--------------------------------------|
B |--------------------------------------|
G |---10-10-\-8-8-8-\-6-6-6-6-6-6-/-8----|
D |-6-10-10-\-8-8-8-\-6-6-6-6-6-6-/-8-6p-|
A |-6--8--8-\-6-6-6-\-4-4-4-4-4-4-/-6-6p-|
E |-4---------------------------------4p-|

E |-----------------------------------------------|
B |-----------------------------------------------|
G |---10-10-\-8-8-8-\-6-6-6-6-6-6-/-8-------------|
D |-6-10-10-\-8-8-8-\-6-6-6-6-6-6-/-8-6-6-6-6-6-6-|
A |-6--8--8-\-6-6-6-\-4-4-4-4-4-4-/-6-6-6-6-6-6-6-|
E |-4---------------------------------4-4-4-4-4-4-|

E |------------------------------------------|
B |------------------------------------------|
G |-10-10-10-10-10-8-8-8-8-8-8-6-6-6-6-6-6-6-|
D |-10-10-10-10-10-8-8-8-8-8-8-6-6-6-6-6-6-6-|
A |--8--8--8--8--8-6-6-6-6-6-6-4-4-4-4-4-4-4-|
E |------------------------------------------|
                                  |---pm----|

E |------------------------------------|
B |------------------------------------|
G |-13-13-13-13-13-13-13-13-13-13-13-\-|
D |--x--x--x--x--x--x--x--x--x--x--x-\-|
A |-11-11-11-11-11-11-11-11-11-11-11-\-|
E |------------------------------------|

E |-----------------------------------------|
B |-8-8-8-8-8-8-8-8-8-8-8-8-8-8-8-8-8-8-8-8-|
G |-6-6-6-6-6-6-6-6-6-\-5-5-5-5-5-5-5-5-5-5-|
D |-----------------------------------------|
A |-----------------------------------------|
E |-----------------------------------------|

Chorus:

E |----------------------------------------------------------|
B |----------------------------------------------------------|
G |-10-10-10-10-10-10--6-6-6-6-6-6---------------8-8-8-8-8-8-|
D |-10-10-10-10-10-10--6-6-6-6-6-6--6-6-6-6-6-6--8-8-8-8-8-8-|
A |--8--8--8--8--8--8--4-4-4-4-4-4--6-6-6-6-6-6--6-6-6-6-6-6-|
E |---------------------------------4-4-4-4-4-4--------------|

E |----------------------------------------------------------|
B |----------------------------------------------------------|
G |-10-10-10-10-10-10--6-6-6-6-6-6---------------8-8-8-8-8-8-|
D |-10-10-10-10-10-10--6-6-6-6-6-6--6-6-6-6-6-6--8-8-8-8-8-8-|
A |--8--8--8--8--8--8--4-4-4-4-4-4--6-6-6-6-6-6--6-6-6-6-6-6-|
E |---------------------------------4-4-4-4-4-4--------------|

E |----------------------------------------------------------|
B |----------------------------------------------------------|
G |-10-10-10-10-10-10--6-6-6-6-6-6---------------8-8-8-8-8-8-|
D |-10-10-10-10-10-10--6-6-6-6-6-6--6-6-6-6-6-6--8-8-8-8-8-8-|
A |--8--8--8--8--8--8--4-4-4-4-4-4--6-6-6-6-6-6--6-6-6-6-6-6-|
E |---------------------------------4-4-4-4-4-4--------------|

E |----------------------------------------------------------|
B |----------------------------------------------------------|
G |-10-10-10-10-10-10--6-6-6-6-6-6---------------8-8-8-8-8-8-|
D |-10-10-10-10-10-10--6-6-6-6-6-6--6-6-6-6-6-6--8-8-8-8-8-8-|
A |--8--8--8--8--8--8--4-4-4-4-4-4--6-6-6-6-6-6--6-6-6-6-6-6-|
E |---------------------------------4-4-4-4-4-4--------------|

Breakdown:

E |--------------------------------------|
B |--------------------------------------|
G |------------------------8-------------|
D |-----11---------6---------------8---/-|
A |-9-9----9-\-4-4---4---------6-6---6-/-|
E |--------------------4-4---4-----------|

E |----------------------------------------|
B |----------------------------------------|
G |-11-11-11-11--6-6-6-6-----------8-8-8-8-|
D |-11-11-11-11--6-6-6-6--8-8-8-8--8-8-8-8-|
A |--9--9--9--9--4-4-4-4--x-x-x-x--6-6-6-6-|
E |-----------------------4-4-4-4----------|
   |----------------pm--------------------|

E |--------------------------------------|
B |--------------------------------------|
G |------------------------8-------------|
D |-----11---------6---------------8---/-|
A |-9-9----9-\-4-4---4---------6-6---6-/-|
E |--------------------4-4---4-----------|

E |------------------------------------------|
B |------------------------------------------|
G |-10-10-10-10-10-8-8-8-8-8-8-6-6-6-6-6-6-6-|
D |-10-10-10-10-10-8-8-8-8-8-8-6-6-6-6-6-6-6-|
A |--8--8--8--8--8-6-6-6-6-6-6-4-4-4-4-4-4-4-|
E |------------------------------------------|
   |-------------------pm-------------------|

Chorus:

E |----------------------------------------------------------|
B |----------------------------------------------------------|
G |-10-10-10-10-10-10--6-6-6-6-6-6---------------8-8-8-8-8-8-|
D |-10-10-10-10-10-10--6-6-6-6-6-6--6-6-6-6-6-6--8-8-8-8-8-8-|
A |--8--8--8--8--8--8--4-4-4-4-4-4--6-6-6-6-6-6--6-6-6-6-6-6-|
E |---------------------------------4-4-4-4-4-4--------------|

E |----------------------------------------------------------|
B |----------------------------------------------------------|
G |-10-10-10-10-10-10--6-6-6-6-6-6---------------8-8-8-8-8-8-|
D |-10-10-10-10-10-10--6-6-6-6-6-6--6-6-6-6-6-6--8-8-8-8-8-8-|
A |--8--8--8--8--8--8--4-4-4-4-4-4--6-6-6-6-6-6--6-6-6-6-6-6-|
E |---------------------------------4-4-4-4-4-4--------------|

E |----------------------------------------------------------|
B |----------------------------------------------------------|
G |-10-10-10-10-10-10--6-6-6-6-6-6---------------8-8-8-8-8-8-|
D |-10-10-10-10-10-10--6-6-6-6-6-6--6-6-6-6-6-6--8-8-8-8-8-8-|
A |--8--8--8--8--8--8--4-4-4-4-4-4--6-6-6-6-6-6--6-6-6-6-6-6-|
E |---------------------------------4-4-4-4-4-4--------------|

E |----------------------------------------------------------|
B |----------------------------------------------------------|
G |-10-10-10-10-10-10--6-6-6-6-6-6---------------8-8-8-8-8-8-|
D |-10-10-10-10-10-10--6-6-6-6-6-6--6-6-6-6-6-6--8-8-8-8-8-8-|
A |--8--8--8--8--8--8--4-4-4-4-4-4--6-6-6-6-6-6--6-6-6-6-6-6-|
E |---------------------------------4-4-4-4-4-4--------------|

Outro:

E |--------------------------------------------------------------|
B |--------------------------------------------------------------|
G |-10-10-10-10-10-10-10-8-8-8-8-8-8-8-8-8-8-8-8-8---------------|
D |-10-10-10-10-10-10-10-8-8-8-8-8-8-8-8-8-8-8-8-8-8-8-8-8-8-8-8-|
A |--8--8--8--8--8--8--8-6-6-6-6-6-6-6-6-6-6-6-6-6-8-8-8-8-8-8-8-|
E |------------------------------------------------6-6-6-6-6-6-6-|
      |-------pm--------| |----pm-----| |---pm----| |-----pm----|

E |--------------------------------------------------------------|
B |--------------------------------------------------------------|
G |-10-10-10-10-10-10-10-8-8-8-8-8-8-8-8-8-8-8-8-8---------------|
D |-10-10-10-10-10-10-10-8-8-8-8-8-8-8-8-8-8-8-8-8-8-8-8-8-8-8-8-|
A |--8--8--8--8--8--8--8-6-6-6-6-6-6-6-6-6-6-6-6-6-8-8-8-8-8-8-8-|
E |------------------------------------------------6-6-6-6-6-6-6-|
      |-------pm--------| |----pm-----| |---pm----| |-----pm----|

E |-------------------------------------------------------|
B |-------------------------------------------------------|
G |-10-10-10-10-10-10-10-10-10-10-10-10-10-10-10-10-10-10-|
D |-10-10-10-10-10-10-10-10-10-10-10-10-10-10-10-10-10-10-|
A |--8--8--8--8--8--8--8--8--8--8--8--8--8--8--8--8--8--8-|
E |-------------------------------------------------------|
      |-----------------pm----------------|

E |--------------------------------------------------------|
B |--------------------------------------------------------|
G |-10-10-10-10-10-10-10-10-10-10-10-10-10-10-10-10-10-10*-|
D |-10-10-10-10-10-10-10-10-10-10-10-10-10-10-10-10-10-10*-|
A |--8--8--8--8--8--8--8--8--8--8--8--8--8--8--8--8--8--8*-|
E |--------------------------------------------------------|
      |-----------------pm----------------|

Lyrics:

No sense trying to impress, faces emotionless. Contact with others 
is unheard of (Oi, oi). When you bump into me, there's no apology. 
What is it that you're so afraid of? You're staring right through 
me.

When will we gain back the trust we've been breaking? How can we 
stop all the clock's we've been racing? Thought that we had grown, 
now we're all alone, seems that time isn't all that we're wasting.

(Hey, hey)

What are you gonna do if i try to talk to you? Walking away won't
solve your problem.

(Hey, hey)

Can't you be a human being and show common courtesy, a cold 
shoulder isn't what I'm here for. Does anybody care?

When will we gain back the trust we've been breaking? How can we 
stop all the clock's we've been racing? Thought that we had grown, 
now we're all alone, seems that time isn't all that we're wasting.

When will we gain back the trust we've been breaking? How can we 
stop all the clock's we've been racing? Thought that we had grown, 
now we're all alone, seems that time isn't all that we're wasting.

(Whoa, whoa, whoa)
(Whoa, whoa, whoa)

Hey!
            

comments powered by Disqus
↑ Back to top | Tsunami Bomb Tabs for No One's Looking. Lyrics for acoustic guitar and electric guitar. Tablatures and chords are parodies/interpretations of the original songs. You may use it for private study, scholarship, research or language learning purposes only