» » »

Tsunami Bomb, Mushy Love Song Bass tabs (ver.1)

Artists:  A B C D E F G H I J K L M N O P Q R S T U V W X Y Z # 

Mushy Love Song Bass tabs (ver.1)

Tsunami Bomb Tabs
 Rating:
4/5 (4 votes)
Mushy Love Song lessons Tabs too difficult? Try these video lessons and learn fast
1
                Intro
G|---------------------------------------------------------------------------|
D|---------------------------------------------------------------------------|
A|-6(x7)---6(x7)---6(x15)---3(x8)-------------6(x8)--------------------------|
E|-------6-------6--------6-------6(x8)-4(x8)-------6(x16)-------------------|
Verse 1
G|---------------------------------------------------------------------------|
D|---------------------------------------------------------------------------|
A|-6(x15)---3(x8)-------------6(x8)------------------------------------------|
E|--------6-------6(x8)-4(x8)-------6(x16)-----------------------------------|
Chorus
G|---------------------------------------------------------------------------|
D|-------6(x4)-8(x4)---------------------------------------------------------|
A|-6(x8)---------------------------------------------------------------------|
E|---------------------------------------------------------------------------|
Verse 2
G|---------------------------------------------------------------------------|
D|---------------------------------------------------------------------------|
A|-6(x8)-------3(x8)---------------------------------------------------------|
E|-------6(x8)-------4(x8)---------------------------------------------------|
Outro (slow)
G|---------------------------------------------------------------------------|
D|-------6(x4)-8(x4)-------6(x4)-8(x2)---------------------------------------|
A|-6(x8)-------------6(x8)-------------6-------------------------------------|
E|---------------------------------------------------------------------------|

Structure: 
Intro
Verse 1 
Chorus (x2)
Verse 1 (x2)
Chorus (x2)
Verse 2 (x6)
Verse 1 
Chorus (x2)
Outro
            
Submit corrections

comments powered by Disqus
↑ Back to top | Tsunami Bomb Bass for Mushy Love Song. Lyrics for acoustic guitar and electric guitar. 1 Tablatures and chords are parodies/interpretations of the original songs. You may use it for private study, scholarship, research or language learning purposes only