» » »

Tsunami Bomb, Jigsaw Tabs (ver.1)

Artists:  A B C D E F G H I J K L M N O P Q R S T U V W X Y Z # 

Jigsaw Tabs (ver.1)

Tsunami Bomb Tabs
Rating:
0/5 (0 votes)
Jigsaw lessons Tabs too difficult? Try these video lessons and learn fast
                "Jigsaw" By Tsunami Bomb from The Definitive Act

I'm pretty sure this is how to play "Jigsaw." I listened to it and palyed it a lot so I 
this to be it. If I missed anything or tabbed something incorrectly, please say so.

Intro: Drums

Verse: Bass

Bridge
e-------------------------------------------------|
B-------------------------------------------------|
G--7-7-7-7-7-7-7-7-------------------4---------2~-|
D--7-7-7-7-7-7-7-7--4-4-4-4-4-4-4-4--4-0-4-0-5-2~-|
A--5-5-5-5-5-5-5-5--4-4-4-4-4-4-4-4--2-0-4-0-5-0~-|
E-------------------2-2-2-2-2-2-2-2----0-2-0-3----|


Verse 2
The second verse has an acoustic riff similar to the bass riff.


Verse 3
e------------------------------------------------------------------|
B------------------------------------------------------------------|
G--7-7-7-7-7-7-7-7-----------------2-2-2-2-2-2-2-2-2-2-2-2-2-2-2-2-|
D--5-5-5-5-5-5-5-5-4-4-4-4-4-4-4-4-2-2-2-2-2-2-2-2-2-2-2-2-2-2-2-2-|
A--5-5-5-5-5-5-5-5-4-4-4-4-4-4-4-4-0-0-0-0-0-0-0-0-0-0-0-0-0-0-0-0-|
E------------------2-2-2-2-2-2-2-2---------------------------------|
Play this twice


then
e------------------------------------------------|
B------------------------------------------------|
G--7-7-7-7-7-7-7-7-------------------4---------2-|
D--7-7-7-7-7-7-7-7--4-4-4-4-4-4-4-4--4-0-4-0-5-2-|
A--5-5-5-5-5-5-5-5--4-4-4-4-4-4-4-4--2-0-4-0-5-0-|
E-------------------2-2-2-2-2-2-2-2----0-2-0-3---|


Then this, palm muted
e------------------------------------------------------------------|
B------------------------------------------------------------------|
G------------------------------------------------------------------|
D-4-4-4-4-4-4-4-4-4-4-4-4-4-4-4-4--5-5-5-5-5-5-5-5-5-5-5-5-5-5-5-5-|
A-4-4-4-4-4-4-4-4-4-4-4-4-4-4-4-4--5-5-5-5-5-5-5-5-5-5-5-5-5-5-5-5-|
E-2-2-2-2-2-2-2-2-2-2-2-2-2-2-2-2--3-3-3-3-3-3-3-3-3-3-3-3-3-3-3-3-|


e---------------------------------------------------------------------|
B---------------------------------------------------------------------|
G-2-2-2-2-2-2-2-2--4-4-4-4-4-4-4-4------------------------------------|
D-2-2-2-2-2-2-2-2--4-4-4-4-4-4-4-4--5-5-5-5-5-5-5-5-5-5-5-5-5-5-5-5-5-|
A-0-0-0-0-0-0-0-0--2-2-2-2-2-2-2-2--5-5-5-5-5-5-5-5-5-5-5-5-5-5-5-5-5-|
E-----------------------------------3-3-3-3-3-3-3-3-3-3-3-3-3-3-3-3-3-|
Play this three times


Then
e--------------------------------------------------|
B--------------------------------------------------|
G-2-2-2-2-2-2-2-2--4-4-4-4-4-4-4-4------7----------|
D-2-2-2-2-2-2-2-2--4-4-4-4-4-4-4-4--5---7-7~-------|
A-0-0-0-0-0-0-0-0--2-2-2-2-2-2-2-2--5---5-7~-------|
E-----------------------------------3-----5~-------|


With distortion
e-------------------------------------------------|
B-------------------------------------------------|
G---------------7-7-7-7-7-0---------------4-x-0---|
D-4-4-4---4-xxx-7-7-7-7-7-0-7-7-7-7-7-x-0-4-x-0-2-|
A-4-4-4---4-xxx-5-5-5-5-5-0-7-7-7-7-7-x-0-2-x-0-2-|
E-2-2-2-0-2-xxx-------------5-5-5-5-5-x-0-------0-|
Keep repeating until the end
            

comments powered by Disqus
↑ Back to top | Tsunami Bomb Tabs for Jigsaw. Lyrics for acoustic guitar and electric guitar. Tablatures and chords are parodies/interpretations of the original songs. You may use it for private study, scholarship, research or language learning purposes only