» » »

Tsunami Bomb, El Diablo Tabs (ver.2)

Artists:  A B C D E F G H I J K L M N O P Q R S T U V W X Y Z # 

El Diablo Tabs (ver.2)

Tsunami Bomb Tabs
 Rating:
4/5 (4 votes)
El Diablo lessons Tabs too difficult? Try these video lessons and learn fast
1
                INTRO BY STEVE HOLLOMAN! MOTHA CLUCKAS!!
e-----------------------------------------------------------|
b-----------------------------------------------------------|
g----5h7--7---5h7--7-----9h10--10---9h10--10---10--9--7--6--|
d-----------------------------------------------------------|
a-----------------------------------------------------------|
e-----------------------------------------------------------|


e-----------------------------------------------------------|
b-----------------------------------------------------------|
g----7-----------5------------------5xxxxxx-----------------|
d----7-----3-----5------3xxxxxx-----5xxxxxx-----------------|  X 2
a----5-----3-----3------3xxxxxx-----3xxxxxx-----------------|
e----------1------------1xxxxxx-----------------------------|


e-----------------------------------------------------------|
b-----------------------------------------------------------|
g-----10---10-10---10--9--10--10p9--------------------------|
d-----------------------------------------------------------|
a-----------------------------------------------------------|
e-----------------------------------------------------------|


e-----------------------------------------------------------|
b-----------------------------------------------------------|
g------5----------------5xxxxxx-----------------------------|
d------5----3xxxxxx-----5xxxxxx-----------------------------|
a------3----3xxxxxx-----3xxxxxx-----------------------------|
e-----------1xxxxxx-----------------------------------------|


e-----------------------------------------------------------|
b-----------------------------------------------------------|
g-----7--7--7------7--7--7-----7--7--7----------------------|
d-----7--7--7------7--7--7-----7--7--7------7--7----8-------|  X 2
a-----5--5--5------5--5--5-----5--5--5------7--7----8-------|
e-------------------------------------------5--5----6-------|


e-----------------------------------------------------------|
b-----------------------------------------------------------|
g-------/10--9--7--6--7-------------------------------------|
d-----------------------------------------------------------|
a-----------------------------------------------------------|
e----------------------------5h6--5-------------------------|
            
Submit corrections

comments powered by Disqus
↑ Back to top | Tsunami Bomb Tabs for El Diablo. Lyrics for acoustic guitar and electric guitar. 1 Tablatures and chords are parodies/interpretations of the original songs. You may use it for private study, scholarship, research or language learning purposes only