» » »

Tsunami Bomb, El Diablo Tabs (ver.1)

Artists:  A B C D E F G H I J K L M N O P Q R S T U V W X Y Z # 

El Diablo Tabs (ver.1)

Tsunami Bomb Tabs
 Rating:
4.2/5 (5 votes)
El Diablo lessons Tabs too difficult? Try these video lessons and learn fast
                
Tsunami Bomb - El Diablo

Intro:
e|-----------------------------------------|
B|-----------------------------------------|
G|--5/7-77--5/7-77-xx--5/7-77--5/7-77-xx---|
D|--x/x-xx--x/x-xx-xx--x/x-xx--x/x-xx-xx---|
A|--3/5-55--3/5-55-xx--3/5-55--3/5-55-xx---|
E|-—---------------------------------------|


e|--------------------------|-----------|
B|--------------------------|-----------|
G|--9/10-1010--9/10-1010-xx-|-10-9-7-6--|
D|--x/x--x-x---x/x--x-x--xx-|-x--x-x-x--|
A|--7/8--8-8---7/8--8-8--xx-|-8--7-5-4--|
E|-—------------------------|-----------|

 (this part is also used in the chorus)
e|------------------------------------------------|
B|------------------------------------------------|
G|--7-77-77~-7-7-x-----------------5-55-55~-5-5-x-|
D|--7-77-77~-7-7-x-3-33-33~-3-3-x--5-55-55~-5-5-x-|
A|--5-55-55~-5-5-x-3-33-33~-3-3-x--3-33-33~-3-3-x-|
E|-—---------------1-11-11~-1-1-x-----------------|

                    
e|-----------------|---------------------------------|
B|-----------------|---------------------------------|
G|-----------------|--7-77-77~-7-7--10-1010-9-10-10\-|
D|--5-xxxx--7-xxxx-|--7-77-77~-7-7--x--x-x--x-x--x-\-|
A|--5-xxxx--7-xxxx-|--5-55-55~-5-5--8--8-8--7-8--8-\-|
E|-—3-xxxx--5-xxxx-|---------------------------------|

				  (end intro)
e|----------------------------------|
B|----------------------------------|
G|--5-55-55~-5-5-x------------------|
D|--5-55-55~-5-5-x--5-xxxx--7-xxxx--|
A|--3-33-33~-3-3-x--5-xxxx--7-xxxx--|
E|-—----------------3-xxxx--5-xxxx--|

Verse: (played twice)
"I think about what's going on..."
e|-------------------------------|
B|-------------------------------|
G|--7-7-7--7-7-7--7-7-7----------|
D|--7-7-7--7-7-7--7-7-7---7-7-8~-|
A|--5-5-5--5-5-5--5-5-5---7-7-8~-|
E|-—----------------------5-5-6~-|

(Breakdown after the Verse Riff)
e|----------------------|
B|----------------------|
G|--10-9-7-6-7----------|
D|--x--x-x-x-x-7-8~--7--|
A|--8--7-5-4-5-x-x---x--|
E|-—-----------5-6~--5--|


Back to the Verse Riff with this little addition 
to the chords:

"the people ask but I don't hear"
e|-------------------|
B|-------------------|
G|--7-7-7------------|
D|--7-7-7------------|
A|--5-5-5-555-555----|
E|-—-----------------|
   pm = [-palm^muted-]

Pre-Chorus: (last chord is picked from bottom to top)
e|----------------------------------------------------------5-|
B|----------------------------------------------------------6-|
G|----------------------------------7------7-7-7---------7--7-|
D|--3-33-33~-3-3-3--2-22-22~-2-2-2--7------7-7-7--8-8-7~-7--7-|
A|--3-33-33~-3-3-3--2-22-22~-2-2-2--5-5555-5-5-5--8-8-7~-5----|
E|-—1-11-11~-1-1-1--0-00-00~-0-0-0----------------6-6-5~------|
                                       ^pm

Chorus: (plays to the 'bar line' twice)
"GO! And don't look back..."
e|------------------------------------------------|
B|------------------------------------------------|
G|--7-77-77~-7-7-x-----------------5-55-55~-5-5-x-|
D|--7-77-77~-7-7-x-3-33-33~-3-3-x--5-55-55~-5-5-x-|
A|--5-55-55~-5-5-x-3-33-33~-3-3-x--3-33-33~-3-3-x-|
E|-—---------------1-11-11~-1-1-x-----------------|

 (goes to this after second time- also 2x)
e|-----------------|-------------------5------------------|
B|-----------------|---------------6~----6----6-6~--------|
G|-----------------|-(7)(7)(7)---7---------7--7-7~--------|
D|--5-xxxx--7-xxxx-|-(7)(7)(7)-7-------------------7-7-8~-|
A|--5-xxxx--7-xxxx-|-(5)(5)(5)---------------------7-7-8~-|
E|-—3-xxxx--5-xxxx-|-------------------------------5-5-6~-|
			  (--^background chords)	

Then it goes to the Verse Riff, which is played once
 with the screamingand once again under different 
effects.

After that, the Pre-Chorus Riff comes up, and it's 
followedby an interlude type deal that goes something 
like this:

(this plays about 6 times over. The first two times, 
each chord is picked two times, the rest is once 
each...listen closely to thesong to know what I mean.)

e|---------5-------|---------0--------|
B|-----6-----6---6-|-----6-----6---6--|
G|---7---7-----7---|---7---7-----7----|
D|-7---------------|-6----------------|
A|-----------------|------------------|
E|-—---------------|------------------|





The interlude then finishes like this:

"I don't               know you..."
e|-5--------0----------5------------|----------|
B|---6--------6----------6----------|----------|
G|-----7--------7-7~-------7--------|----------|
D|-------6~------------------6~-----|-10-9-7-6-|
A|----------------------------------|-x--x-x-x-|
E|-—--------------------------------|-8--7-5-4-|


The Chorus follows with a few variations:
(played twice like this)
e|-------------------------------------------------|
B|-------------------------------------------------|
G|--7-77-77~-7-7-x------------------5-55-55~-5-5-x-|
D|--7-77-77~-7-7-x--3-33-33~-3-3-x--5-55-55~-5-5-x-|
A|--5-55-55~-5-5-x--3-33-33~-3-3-x--3-33-33~-3-3-x-|
E|-—----------------1-11-11~-1-1-x-----------------|

e|-----------------|
B|-----------------|
G|-----------------|
D|--5-xxxx--7-xxxx-|
A|--5-xxxx--7-xxxx-|
E|-—3-xxxx--5-xxxx-|

(then twice like this)
e|------------------------------------------------------|
B|------------------------------------------------------|
G|--7-77-77~-7-7-x---10-1010-99--10-10--5-55-55~-5-5-x--|
D|--7-77-77~-7-7-x---x--x-x--xx--x--x---5-55-55~-5-5-x--|
A|--5-55-55~-5-5-x---8--8-8--77--8--8---3-33-33~-3-3-x--|
E|-—----------------------------------------------------|

(play 3x)
e|-----------------|
B|-----------------|
G|-----------------|
D|--5-xxxx--7-xxxx-|
A|--5-xxxx--7-xxxx-|
E|-—3-xxxx--5-xxxx-|

Finally, the song ends like this-

e|---------------5---------------5-----------|
B|-----------6-----6---6-----6-----6---7-----|
G|--(7)----7---7-----7-----7---7-----7---7\--|
D|--(7)--7---------------7---------------7\--|
A|--(5)----------------------------------5\--|
E|-—-----------------------------------------|

================================================================================
            
Submit corrections

comments powered by Disqus
↑ Back to top | Tsunami Bomb Tabs for El Diablo. Lyrics for acoustic guitar and electric guitar. Tablatures and chords are parodies/interpretations of the original songs. You may use it for private study, scholarship, research or language learning purposes only