» » »

Tsunami Bomb, Count Me Out Tabs (ver.1)

Artists:  A B C D E F G H I J K L M N O P Q R S T U V W X Y Z # 

Count Me Out Tabs (ver.1)

Tsunami Bomb Tabs
Rating:
3/5 (2 votes)
Count Me Out lessons Tabs too difficult? Try these video lessons and learn fast
                
Tsunami Bomb - Count Me Out

x\ = pick slide

e|-------------------------------------------|
B|-------------------------------------------|
G|-------77-8--------77-8-------77-8------x\-|
D|--77-7-77-8--77--7-77-8--77-7-77-8--7-7-x\-|
A|--77-7-55-6--77--7-55-6--77-7-55-6--7-7-x\-|
E|--55-5-------55--5-------55-5-------5-5----|

"Joining the club!"
e|-------------------------------------------------|
B|-------------------------------------------------|
G|-------77-8--------77-8-------77-8-------77-8----|
D|--77-7-77-8--77--7-77-8--77-7-77-8--77-7-77-8-77-|
A|--77-7-55-6--77--7-55-6--77-7-55-6--77-7-55-6-77-|
E|--55-5-------55--5-------55-5-------55-5------55-|

This next riff, all the notes are palm muted, the 
(#) is there toremind you that. T
he picking is alternate up and down picking.
 Really fastmonotonous picking. 
(Use down, down, up down over and over) 
The picking goeson until M screams 
"anti-intelligence." Then you hit the chord,
 butafterwards go back to the picking...

"Drinking..."  "Intelligence
e|------------------|
B|------------------|
G|------------------|
D|------------------|
A|-------------7~---|
E|-(5)—555-----5~---|

Then repeat it from the "Joining the club" 
riff to the "drinking"riff and then play this 
4 times.

e|----------------|
B|----------------|
G|-----7--8--7-5--|
D|--7--7--8--7-5--|
A|--7--5--6--5-3--|
E|--5--------—----|

End like this.
e|-------|
B|-------|
G|-------|
D|-7~--7-|
A|-7~--7-|
E|-5~--5-|

================================================================================
            

comments powered by Disqus
↑ Back to top | Tsunami Bomb Tabs for Count Me Out. Lyrics for acoustic guitar and electric guitar. Tablatures and chords are parodies/interpretations of the original songs. You may use it for private study, scholarship, research or language learning purposes only