>
 >
5150 1

5150 1 Guitar Tabs

Tsunami Bomb - 5150 1 chords, tabs, tablatures, lyrics

Guitar lessons | Add/correct | Request | Top 50 tabs Artists:  A B C D E F G H I J K L M N O P Q R S T U V W X Y Z 0-9

5150 1 Guitar Tabs – Tsunami Bomb

CD, Sheet music, Poster

Do you like 5150 1? Share with your friends now
Bass TabsTabsTabs v2


i am very sorry for a confusing looking tab, all the notes are there, just need to 
out where they go :D
-|----------------------------------------------------------------------------|
-|-------------------------00000000-0000000-----------------------------------|
-|-------------------------44444444-5555555-----------------------------------|
-|-6-4-6--xxx--4-2-4--xxx--------------------6-4-6--xxx--4-2-4--xxx-----------|
-|-6-4-6--xxx--4-2-4--xxx--------------------6-4-6--xxx--4-2-4--xxx-----------|
-|-4-2-4--xxx--2-0-2--xxx--------------------4-2-4--xxx--2-0-2--xxx-----------|
         intro

-|----------------------------------------------------------------------------|
-|--00000000-1212121212121212---------------------------000000000-00000000----|
-|--44444444--9-9-9-9-9-9-9-9---------------------------444444444-55555555----|
-|------------------------------6-4-6--xxx--4-2-4--xxx------------------------|
-|------------------------------6-4-6--xxx--4-2-4--xxx------------------------|
-|------------------------------4-2-4--xxx--2-0-2--xxx------------------------|


-|------------------------------------------------------------------|---------|
-|-------------------------------------------12121212121212121212---|---------|
-|--------------------------------------------9-9-9-9-9-9-9-9-9-9---|---------|
-|--6-4-6--xxx--4-2-4--xxx--999999999999999-------------------------|---------|
-|--6-4-6--xxx--4-2-4--xxx--777777777777777-------------------------|---------|
-|--4-2-4--xxx--2-0-2--xxx--000000000000000-------------------------|---------|


-|---------------------|------------------------------------------------------|
-|---------------------|----------------0000000000000000-------000000000000---|
-|---------------------|-44444----------4444444444444444-------444444444444---|
-|-4--66-------4-22----|-44444-2--4-66-------------------4-22-----------------|
-|-4--66-------4-22----|-22222-2--4-66-------------------4-22-----------------|
-|-2--44-------2-00----|-------0--2-44-------------------2-00-----------------|
   verse  x2                2nd part of versew (arr for 1 guitar)

-|------------------------------------------------------------|---------------|
-|--0000--------0000000000000000------------------------------|---------------|
-|--4444--------4444444444444444-------------------44444444---|---------------|
-|--------4-66--------------------6-6-4--22222222--44444444---|---------------|
-|--------4-66--------------------6-6-4--22222222--22222222---|---------------|
-|--------2-44--------------------4-4-2--00000000-------------|---------------|


-|---------------------------------------------|------------------------------|
-|-9999999999999999----------------------------|------------------------------|
-|-8886666666668866-----------------4444444----|------------------------------|
-|-6666666666666666-----------------4444444----|-x4---------------------------|
-|--------------------7-6-4-2-4-----2222222----|------------------------------|
-|------------------------------2--------------|------------------------------|
   chorus     (not sure bout the 9's on 1st chord of chorus)

-|---------------------------|------------------------------------|-----------|
-|---------------------------|------------------------------------|-----------|
-|----------------66666666---|--------66666666-----66--44444444---|-----------|
-|-4----6----2----66666666---|-66-44--66666666--22-66--44444444---|-----------|
-|-4----6----2----44444444---|-66-44--44444444--22-44--22222222---|-----------|
-|-2----4----0---------------|-44-22------------00----------------|-----------|
     do verse and chorus again then        heavy bit x 4

-|----------------------------------------------------------------------------|
-|----------------------------------------------------------------------------|
-|----------------------------------------------------------------------------|
-|----------------------------------------------------------------------------|
-|----------------------------------------------------------------------------|
-|----------------------------------------------------------------------------|
                            then just repeat the other bits to end!





Comments


Popular Tsunami Bomb tabs & chords
Lemonade Bass Tabs
Planet Schmanet Janet Bass Tabs
20 Going On.. Tabs
5150 Tabs
In This Together Tabs
Lemonade 1 Tabs
My Machete Tabs
Simple Truth Tabs
Swimming Through Molasses Tabs
Take The Reins 2 Tabs


Song lyrics



↑ Back to top | Tablatures and chords are parodies/interpretations of the original songs. You may use it for private study, scholarship, research or language learning purposes only
© 2014 AZChords.com Contact us | Privacy policy | DMCA | Add/correct tabs | Request tabs | Top 50 tabs