» » »

Tsunami Bomb, 5150 Bass tabs (ver.1)

Artists:  A B C D E F G H I J K L M N O P Q R S T U V W X Y Z # 

5150 Bass tabs (ver.1)

Tsunami Bomb Tabs
Rating:
0/5 (0 votes)
5150 lessons Tabs too difficult? Try these video lessons and learn fast
                (0:00) - INTRO 1
G|-----------------------------------------|
D|-----------------------------------------|
A|-----------------------------------------| ×3
E|--4-0-4---x-x-x---2-0-2---x-x-x---7>-8>--|


(0:15) - INTRO 2
G|--------------------------------------------|
D|--------------------------------------------|
A|---------------------------------------/-7>-|
E|--4-0-4---x-x-x---2-0-2---x-x-x---0>--------|
(play 0 and 7 as many times as needed)


(0:23) - VERSE 1
G|----------------------------------------|
D|----------------------------------------|
A|----------------------------------------|
E|----44----0-00------44----0-00--777777--|


(0:33) - VERSE 2
G|-------------------------------------|
D|-------------------------------------|
A|-------------------------------------|
E|----44----0-00------44--431--0>--7>--|


(0:44) - CHORUS
G|--------------|
D|--------------|
A|--------------| ×4
E|--4>--0>--7>--|


(1:04) - VERSE 1 and VERSE 2


(1:25) - CHORUS


(1:45) - INTRO to BRIDGE
G|-----------------|
D|-----------------|
A|-----------------|
E|--2----4--0--9>--|


(1:50) - BRIDGE 1
G|-----------------------------|
D|-----------------------------|
A|--------4----------4--2------| ×2
E|--4--2----------0------------|


(2:00) - BRIDGE 1a (same thing, but strumming this time)
G|----------------------------|
D|----------------------------|
A|----------4>--------4>--2>--| ×2
E|--4>--2>--------0>----------|


(2:11) - VERSE 2a (same thing, but strumming)
G|---------------------------|
D|---------------------------|
A|---------------------------|
E|--4>--0>--4>--431--0>--7>--|


(2:21) - CHORUS


(2:42) - OUTRO
G|------------------------|
D|------------------------|
A|------------------------|
E|--4-4-4040--4-4-4040-4--|
            

comments powered by Disqus
↑ Back to top | Tsunami Bomb Bass for 5150. Lyrics for acoustic guitar and electric guitar. Tablatures and chords are parodies/interpretations of the original songs. You may use it for private study, scholarship, research or language learning purposes only