» » »

Tsunami Bomb, 3 Days 1000 Nights Tabs (ver.2)

Artists:  A B C D E F G H I J K L M N O P Q R S T U V W X Y Z # 

3 Days 1000 Nights Tabs (ver.2)

Tsunami Bomb Tabs
Rating:
0/5 (0 votes)
3 Days 1000 Nights lessons Tabs too difficult? Try these video lessons and learn fast
                Tunning: I think its just normal tunning and the sound I'm just going with Distortion on that.
Symbols: ~ is ring and each symbol for 1 note (e.x. 2 ~~ equals 2 ring notes)

|----------|SoLo|----------|
E|--------------------------------------------------------------|
B|--------------------------------------------------------------|
G|--------------------------------------------------------------|
D|--------------------------------------------------------------|
A|-4--4--6-4-----4--4--6-4-----4--4--6-4---4~~----------|
E|----------4---------------4--------------4---------4~~-----|

.....Drums start coming in and with a bass.....

|----------|Riff 2|----------|
E|----------------------------------------------------------------|
B|----------------------------------------------------------------|
G|----------------------------------------------------------------|
D|----------------------------------------------------------------| 2x
A|-4--4--6-4----4--4--6-4----4--4--6-4----4--4--6-4-------|
E|----------4--------------4-------------4--------------4--------|

.....Singer startscoming in.....

|----------|Riff 3|----------|
E|-------------------------------------------------------------------------------|
B|-------------------------------------------------------------------------------|
G|-------------------------------------------------------------------------------|
D|-------------------------------------------------------------------------------| 3x
A|-4--4--6-4-----4--4--6-4-----4--4--6-4-----4--4--6-4----4--4--6-4----|
E|----------4---------------4--------------4---------------4-------------4-----|

......Heavy part.....

|----------|Riff 4|----------|
E|---------------------------------------------|
B|---------------------------------------------|
G|--7-7-7-7-------------7-7-7-7------------|
D|--7-7-7-7--8-8-8-8--7-7-7-7--8-8-7-7-| 2x
A|--5-5-5-5--8-8-8-8--5-5-5-5--8-8-7-7-|
E|--------------6-6-6-6-------------6-6-5-5-|
            
Submit corrections

comments powered by Disqus
↑ Back to top | Tsunami Bomb Tabs for 3 Days 1000 Nights. Lyrics for acoustic guitar and electric guitar. Tablatures and chords are parodies/interpretations of the original songs. You may use it for private study, scholarship, research or language learning purposes only